0
SECTION
2
HEADER
9
$LTSCALE
40
20
9
$LIMMIN
10
0
20
0
9
$LIMMAX
10
297
20
210
9
$EXTMIN
10
0
20
-122
9
$EXTMAX
10
20
20
92
9
$SNAPMODE
70
1
9
$SNAPUNIT
10
1
20
1
9
$GRIDMODE
70
0
9
$GRIDUNIT
10
0
20
0
9
$ORTHOMODE
70
0
9
$TEXTSTYLE
7
txt8
9
$CLAYER
8
1
9
$CECOLOR
62
7
9
$CELTYPE
6
CONTINUOUS
9
$PLINEWID
40
0
9
$OSMODE
70
0
9
$FILLMODE
70
1
9
$CHAMFERA
40
10
9
$CHAMFERB
40
10
9
$COORDS
70
1
9
$FILLETRAD
40
10
9
$INSBASE
10
0
20
0
9
$SPLFRAME
70
0
9
$SPLINESEGS
70
8
0
ENDSEC
0
SECTION
2
TABLES
0
TABLE
2
LTYPE
70
9
0
LTYPE
2
GESTRICHELT
70
0
3
__ __ __ __ __ __ __ __ __ __ __ __ __ __ __
72
65
73
2
40
0.75
49
0.5
49
-0.25
0
LTYPE
2
VERDECKT
70
0
3
_ _ _ _ _ _ _ _ _ _ _ _ _ _ _ _ _ _ _ _ _ _ 
72
65
73
2
40
0.25
49
0.125
49
-0.125
0
LTYPE
2
MITTE
70
0
3
____ _ ____ _ ____ _ ____ _ ____ _ ____ _ __
72
65
73
4
40
2
49
1.25
49
-0.25
49
0.25
49
-0.25
0
LTYPE
2
PHANTOM
70
0
3
_____ _ _ _____ _ _ _____ _ _ _____ _ _ ____
72
65
73
6
40
2.5
49
1.25
49
-0.25
49
0.25
49
-0.25
49
0.25
49
-0.25
0
LTYPE
2
PUNKT
70
0
3
............................................
72
65
73
2
40
0.25
49
0
49
-0.25
0
LTYPE
2
STRICHPUNKT
70
0
3
__ . __ . __ . __ . __ . __ . __ . __ . __ .
72
65
73
4
40
1
49
0.5
49
-0.25
49
0
49
-0.25
0
LTYPE
2
RAND
70
0
3
__ __ . __ __ . __ __ . __ __ . __ __ . __ _
72
65
73
6
40
1.75
49
0.5
49
-0.25
49
0.5
49
-0.25
49
0
49
-0.25
0
LTYPE
2
GETRENNT
70
0
3
__ . . __ . . __ . . __ . . __ . . __ . . __
72
65
73
6
40
1.25
49
0.5
49
-0.25
49
0
49
-0.25
49
0
49
-0.25
0
LTYPE
2
PUNKTE
70
0
3
schliess
72
65
73
2
40
0.1
49
0.05
49
-0.05
0
ENDTAB
0
TABLE
2
STYLE
70
1
0
STYLE
2
STANDARD
70
0
40
0
41
1
50
0
71
0
42
0.2
3
txt8
4

0
ENDTAB
0
TABLE
2
LAYER
70
10
0
LAYER
2
1
70
0
62
7
6
CONTINUOUS
0
LAYER
2
2
70
0
62
7
6
CONTINUOUS
0
LAYER
2
3
70
0
62
7
6
CONTINUOUS
0
LAYER
2
4
70
0
62
7
6
CONTINUOUS
0
LAYER
2
5
70
0
62
7
6
CONTINUOUS
0
LAYER
2
6
70
0
62
7
6
CONTINUOUS
0
LAYER
2
7
70
0
62
7
6
CONTINUOUS
0
LAYER
2
8
70
0
62
7
6
CONTINUOUS
0
LAYER
2
9
70
0
62
7
6
CONTINUOUS
0
LAYER
2
10
70
0
62
7
6
CONTINUOUS
0
ENDTAB
0
ENDSEC
0
SECTION
2
BLOCKS
0
BLOCK
8
0
2
SOR01017-G1
70
0
10
0
20
0
0
POLYLINE
8
1
62
7
70
0
66
1
40
0
41
0
0
VERTEX
8
1
10
1.286406e-15
20
-89
0
VERTEX
8
1
10
1.022999e-14
20
57
0
SEQEND
8
1
0
POLYLINE
8
1
62
7
70
0
66
1
40
0
41
0
0
VERTEX
8
1
10
20
20
57
0
VERTEX
8
1
10
20
20
-89
0
SEQEND
8
1
0
POLYLINE
8
1
62
7
70
0
66
1
40
0
41
0
0
VERTEX
8
1
10
0
20
-114
0
VERTEX
8
1
10
0
20
-122
0
VERTEX
8
1
10
20
20
-122
0
VERTEX
8
1
10
20
20
-114
0
SEQEND
8
1
0
LINE
8
1
62
7
10
0
20
-118
11
20
21
-118
0
POLYLINE
8
1
62
7
70
0
66
1
40
0
41
0
0
VERTEX
8
1
10
20
20
-93
0
VERTEX
8
1
10
20
20
-114.5
0
VERTEX
8
1
10
0
20
-114.5
0
VERTEX
8
1
10
1.041376e-15
20
-93
0
SEQEND
8
1
0
POLYLINE
8
1
62
7
70
0
66
1
40
0
41
0
0
VERTEX
8
1
10
19
20
-114.5
0
VERTEX
8
1
10
19
20
-110.5
0
VERTEX
8
1
10
10
20
-107.5
0
VERTEX
8
1
10
1
20
-110.5
0
VERTEX
8
1
10
1
20
-114.5
0
SEQEND
8
1
0
POLYLINE
8
1
62
7
70
0
66
1
40
0
41
0
0
VERTEX
8
1
10
18
20
-114.5
0
VERTEX
8
1
10
18
20
-111.5
0
VERTEX
8
1
10
10.00171
20
-109.0385
0
VERTEX
8
1
10
2
20
-111.5
0
VERTEX
8
1
10
2
20
-114.5
0
SEQEND
8
1
0
POLYLINE
8
1
62
7
70
1
66
1
40
0
41
0
0
VERTEX
8
1
10
13
20
-111.5
0
VERTEX
8
1
10
13
20
-113.5
0
VERTEX
8
1
10
6
20
-113.5
0
VERTEX
8
1
10
6
20
-111.5
0
SEQEND
8
1
0
CIRCLE
8
1
62
7
10
10.17966
20
-90.99184
40
6.018629
0
LINE
8
1
62
7
10
2
20
-89
11
2
21
-93
0
LINE
8
1
62
7
10
18
20
-89
11
18
21
-93
0
POLYLINE
8
1
62
7
70
0
66
1
40
0
41
0
0
VERTEX
8
1
10
15.84938
20
-89
0
VERTEX
8
1
10
16
20
-89
0
SEQEND
8
1
0
POLYLINE
8
1
62
7
70
0
66
1
40
0
41
0
0
VERTEX
8
1
10
18
20
-89
0
VERTEX
8
1
10
20
20
-89
0
SEQEND
8
1
0
POLYLINE
8
1
62
7
70
0
66
1
40
0
41
0
0
VERTEX
8
1
10
20
20
-93
0
VERTEX
8
1
10
18
20
-93
0
SEQEND
8
1
0
POLYLINE
8
1
62
7
70
0
66
1
40
0
41
0
0
VERTEX
8
1
10
0
20
-89
0
VERTEX
8
1
10
2
20
-89
0
SEQEND
8
1
0
POLYLINE
8
1
62
7
70
0
66
1
40
0
41
0
0
VERTEX
8
1
10
2
20
-93
0
VERTEX
8
1
10
0
20
-93
0
SEQEND
8
1
0
ARC
8
1
62
7
10
10.23032
20
-93.74055
40
5.672405
50
174.0158
51
6.78977
0
CIRCLE
8
1
62
7
10
10.17966
20
-91.02266
40
6.018629
0
LINE
8
1
62
7
10
2
20
-89
11
2
21
-93
0
LINE
8
1
62
7
10
18
20
-89
11
18
21
-93
0
POLYLINE
8
1
62
7
70
0
66
1
40
0
41
0
0
VERTEX
8
1
10
0
20
-89.03081
0
VERTEX
8
1
10
4.508431
20
-89.03081
0
SEQEND
8
1
0
POLYLINE
8
1
62
7
70
0
66
1
40
0
41
0
0
VERTEX
8
1
10
4.503448
20
-93.03081
0
VERTEX
8
1
10
0
20
-93.03081
0
VERTEX
8
1
10
1.887421e-18
20
-93
0
SEQEND
8
1
0
POLYLINE
8
1
62
7
70
0
66
1
40
0
41
0
0
VERTEX
8
1
10
15.84938
20
-89.03081
0
VERTEX
8
1
10
20
20
-89.03081
0
SEQEND
8
1
0
ARC
8
1
62
7
10
10.26859
20
-88.12093
40
5.751732
50
350.9267
51
189.0733
0
POLYLINE
8
1
62
7
70
0
66
1
40
0
41
0
0
VERTEX
8
1
10
16
20
-93
0
VERTEX
8
1
10
15.84959
20
-93
0
SEQEND
8
1
0
POLYLINE
8
1
62
7
70
0
66
1
40
0
41
0
0
VERTEX
8
1
10
20
20
-93
0
VERTEX
8
1
10
20
20
-93.03081
0
VERTEX
8
1
10
15.84959
20
-93.03081
0
SEQEND
8
1
0
POLYLINE
8
1
62
7
70
1
66
1
40
0
41
0
0
VERTEX
8
1
10
14.60927
20
-32.83543
0
VERTEX
8
1
10
3.455577
20
-32.83543
0
VERTEX
8
1
10
3.455577
20
0.6256683
0
VERTEX
8
1
10
14.60927
20
0.6256683
0
SEQEND
8
1
0
POLYLINE
8
1
62
7
70
1
66
1
40
0
41
0
0
VERTEX
8
1
10
14.60927
20
-32.83543
0
VERTEX
8
1
10
3.455577
20
-32.83543
0
VERTEX
8
1
10
3.455577
20
0.6256683
0
VERTEX
8
1
10
14.60927
20
0.6256683
0
SEQEND
8
1
0
POLYLINE
8
1
62
7
70
1
66
1
40
0
41
0
0
VERTEX
8
1
10
6.243992
20
-30.60469
0
VERTEX
8
1
10
10.98432
20
-30.60469
0
VERTEX
8
1
10
10.98432
20
-29.48932
0
VERTEX
8
1
10
7.638212
20
-27.25858
0
VERTEX
8
1
10
10.98432
20
-27.25858
0
VERTEX
8
1
10
10.98432
20
-25.92014
0
VERTEX
8
1
10
6.243992
20
-22.7971
0
VERTEX
8
1
10
6.243992
20
-23.91247
0
VERTEX
8
1
10
9.868956
20
-26.14321
0
VERTEX
8
1
10
6.243992
20
-26.14321
0
VERTEX
8
1
10
6.243992
20
-27.25858
0
VERTEX
8
1
10
9.868956
20
-29.48932
0
VERTEX
8
1
10
6.243992
20
-29.48932
0
SEQEND
8
1
0
ARC
8
1
62
7
10
7.638212
20
-3.28226
40
1.398343
50
355.5948
51
184.4052
0
LINE
8
1
62
7
10
8.14011
20
-21.9048
11
5.463239
21
-20.23174
0
LINE
8
1
62
7
10
5.463239
20
-19.22792
11
8.14011
21
-20.90098
0
POLYLINE
8
1
62
7
70
1
66
1
40
0
41
0
0
VERTEX
8
1
10
6.243992
20
-17.77794
0
VERTEX
8
1
10
10.98432
20
-17.77794
0
VERTEX
8
1
10
10.98432
20
-16.88564
0
VERTEX
8
1
10
9.032419
20
-16.88564
0
VERTEX
8
1
10
9.032419
20
-15.04528
0
VERTEX
8
1
10
10.98432
20
-15.04528
0
VERTEX
8
1
10
10.98432
20
-14.15298
0
VERTEX
8
1
10
6.243992
20
-14.15298
0
VERTEX
8
1
10
6.243992
20
-15.04528
0
VERTEX
8
1
10
8.195894
20
-15.04528
0
VERTEX
8
1
10
8.195894
20
-16.88564
0
VERTEX
8
1
10
6.243992
20
-16.88564
0
SEQEND
8
1
0
POLYLINE
8
1
62
7
70
1
66
1
40
0
41
0
0
VERTEX
8
1
10
6.243992
20
-8.631906
0
VERTEX
8
1
10
10.98432
20
-8.631906
0
VERTEX
8
1
10
10.98432
20
-6.178094
0
VERTEX
8
1
10
10.09204
20
-6.178094
0
VERTEX
8
1
10
10.09204
20
-7.739606
0
VERTEX
8
1
10
9.032419
20
-7.739606
0
VERTEX
8
1
10
9.032419
20
-6.178094
0
VERTEX
8
1
10
8.14011
20
-6.178094
0
VERTEX
8
1
10
8.14011
20
-7.739606
0
VERTEX
8
1
10
7.136287
20
-7.739606
0
VERTEX
8
1
10
7.136287
20
-6.178094
0
VERTEX
8
1
10
6.243992
20
-6.178094
0
SEQEND
8
1
0
POLYLINE
8
1
62
7
70
1
66
1
40
0
41
0
0
VERTEX
8
1
10
6.243992
20
-13.26068
0
VERTEX
8
1
10
10.98432
20
-13.26068
0
VERTEX
8
1
10
10.98432
20
-12.36839
0
VERTEX
8
1
10
7.917067
20
-12.36839
0
VERTEX
8
1
10
10.98432
20
-10.47226
0
VERTEX
8
1
10
10.98432
20
-9.579959
0
VERTEX
8
1
10
6.243992
20
-9.579959
0
VERTEX
8
1
10
6.243992
20
-10.47226
0
VERTEX
8
1
10
9.53433
20
-10.47226
0
VERTEX
8
1
10
6.243992
20
-12.36839
0
SEQEND
8
1
0
LINE
8
1
62
7
10
6.243992
20
-3.389668
11
6.243992
21
-5.508864
0
LINE
8
1
62
7
10
6.243992
20
-5.508864
11
10.98432
21
-5.508864
0
LINE
8
1
62
7
10
10.98432
20
-5.508864
11
10.98432
21
-4.616565
0
LINE
8
1
62
7
10
10.98432
20
-4.616565
11
9.032419
21
-4.616565
0
LINE
8
1
62
7
10
9.032419
20
-3.389668
11
10.98432
21
-0.9916136
0
LINE
8
1
62
7
10
9.032419
20
-4.616565
11
10.98432
21
-2.106982
0
LINE
8
1
62
7
10
10.98432
20
-2.106982
11
10.98432
21
-0.9916136
0
LINE
8
1
62
7
10
8.14011
20
-4.616565
11
7.136287
21
-4.616565
0
LINE
8
1
62
7
10
7.136287
20
-4.616565
11
7.136287
21
-3.389668
0
LINE
8
1
62
7
10
8.14011
20
-4.616565
11
8.14011
21
-3.389668
0
ARC
8
1
62
7
10
7.638212
20
-3.345247
40
0.5038773
50
354.9438
51
185.0562
0
ARC
8
1
62
7
10
8.788467
20
-20.99466
40
2.547756
50
182.9107
51
144.9241
0
LINE
8
1
62
7
10
6.703414
20
-19.53057
11
8.14011
21
-20.45481
0
LINE
8
1
62
7
10
6.243992
20
-21.12405
11
8.14011
21
-22.35096
0
LINE
8
1
62
7
10
8.14011
20
-20.90098
11
8.14011
21
-20.45481
0
LINE
8
1
62
7
10
8.14011
20
-22.35096
11
8.14011
21
-21.9048
0
LINE
8
1
62
7
10
5.463239
20
-20.23174
11
5.463239
21
-19.22792
0
POLYLINE
8
1
62
7
70
0
66
1
40
0
41
0
0
VERTEX
8
1
10
0
20
84
0
VERTEX
8
1
10
0
20
92
0
VERTEX
8
1
10
20
20
92
0
VERTEX
8
1
10
20
20
83
0
SEQEND
8
1
0
ARC
8
1
62
7
10
10.23032
20
56.25944
40
5.672405
50
174.0158
51
6.78977
0
CIRCLE
8
1
62
7
10
10.17966
20
58.97734
40
6.018629
0
LINE
8
1
62
7
10
2
20
61
11
2
21
57
0
LINE
8
1
62
7
10
18
20
61
11
18
21
57
0
POLYLINE
8
1
62
7
70
0
66
1
40
0
41
0
0
VERTEX
8
1
10
0
20
60.96919
0
VERTEX
8
1
10
4.508431
20
60.96919
0
SEQEND
8
1
0
POLYLINE
8
1
62
7
70
0
66
1
40
0
41
0
0
VERTEX
8
1
10
4.503448
20
56.96919
0
VERTEX
8
1
10
0
20
56.96919
0
VERTEX
8
1
10
1.887421e-18
20
57
0
SEQEND
8
1
0
POLYLINE
8
1
62
7
70
0
66
1
40
0
41
0
0
VERTEX
8
1
10
15.84938
20
60.96919
0
VERTEX
8
1
10
20
20
60.96919
0
SEQEND
8
1
0
POLYLINE
8
1
62
7
70
0
66
1
40
0
41
0
0
VERTEX
8
1
10
20
20
57
0
VERTEX
8
1
10
20
20
56.96919
0
VERTEX
8
1
10
15.84959
20
56.96919
0
SEQEND
8
1
0
ARC
8
1
62
7
10
10.26859
20
61.87907
40
5.751732
50
350.9267
51
189.0733
0
POLYLINE
8
1
62
7
70
0
66
1
40
0
41
0
0
VERTEX
8
1
10
1.047502e-14
20
61
0
VERTEX
8
1
10
0
20
84.5
0
VERTEX
8
1
10
20
20
84.5
0
VERTEX
8
1
10
20
20
61
0
SEQEND
8
1
0
POLYLINE
8
1
62
7
70
0
66
1
40
0
41
0
0
VERTEX
8
1
10
1
20
84.5
0
VERTEX
8
1
10
1
20
80.5
0
VERTEX
8
1
10
10
20
77.5
0
VERTEX
8
1
10
19
20
80.5
0
VERTEX
8
1
10
19
20
84.5
0
SEQEND
8
1
0
POLYLINE
8
1
62
7
70
0
66
1
40
0
41
0
0
VERTEX
8
1
10
2
20
84.5
0
VERTEX
8
1
10
2
20
81.5
0
VERTEX
8
1
10
9.998292
20
79.03846
0
VERTEX
8
1
10
18
20
81.5
0
VERTEX
8
1
10
18
20
84.5
0
SEQEND
8
1
0
POLYLINE
8
1
62
7
70
1
66
1
40
0
41
0
0
VERTEX
8
1
10
7
20
81.5
0
VERTEX
8
1
10
7
20
83.5
0
VERTEX
8
1
10
14
20
83.5
0
VERTEX
8
1
10
14
20
81.5
0
SEQEND
8
1
0
LINE
8
1
62
7
10
0
20
88
11
20
21
88
0
ENDBLK
8
0
0
ENDSEC
0
SECTION
2
ENTITIES
0
INSERT
8
1
2
SOR01017-G1
10
0
20
0
0
ENDSEC
0
EOF
