  0
SECTION
  2
HEADER
  9
$ACADVER
  1
AC1018
  9
$ACADMAINTVER
 70
    76
  9
$DWGCODEPAGE
  3
ANSI_1252
  9
$AUTHOR
  1
Hubert Lenker
  9
$CUSTOMPROPERTYTAG
  1
Manager
  9
$CUSTOMPROPERTY
  1

  9
$CUSTOMPROPERTYTAG
  1
Firma
  9
$CUSTOMPROPERTY
  1

  9
$CUSTOMPROPERTYTAG
  1
Kategorie
  9
$CUSTOMPROPERTY
  1

  9
$CUSTOMPROPERTYTAG
  1
Bauteilnummer
  9
$CUSTOMPROPERTY
  1

  9
$CUSTOMPROPERTYTAG
  1
Bezeichnung
  9
$CUSTOMPROPERTY
  1

  9
$CUSTOMPROPERTYTAG
  1
Projekt
  9
$CUSTOMPROPERTY
  1

  9
$CUSTOMPROPERTYTAG
  1
Konstrukteur
  9
$CUSTOMPROPERTY
  1
Hubert Lenker
  9
$CUSTOMPROPERTYTAG
  1
Ingenieur
  9
$CUSTOMPROPERTY
  1

  9
$CUSTOMPROPERTYTAG
  1
Bevollmächtigter
  9
$CUSTOMPROPERTY
  1

  9
$CUSTOMPROPERTYTAG
  1
Kostenstelle
  9
$CUSTOMPROPERTY
  1

  9
$CUSTOMPROPERTYTAG
  1
Händler
  9
$CUSTOMPROPERTY
  1

  9
$CUSTOMPROPERTYTAG
  1
Benutzerstatus
  9
$CUSTOMPROPERTY
  1

  9
$CUSTOMPROPERTYTAG
  1
Konstruktionsstatus
  9
$CUSTOMPROPERTY
  1
InBearbeitung
  9
$CUSTOMPROPERTYTAG
  1
Überprüft von
  9
$CUSTOMPROPERTY
  1

  9
$CUSTOMPROPERTYTAG
  1
Konstruktion genehmigt von
  9
$CUSTOMPROPERTY
  1

  9
$CUSTOMPROPERTYTAG
  1
Fertigung genehmigt von
  9
$CUSTOMPROPERTY
  1

  9
$INSBASE
 10
0.0
 20
0.0
 30
0.0
  9
$EXTMIN
 10
0.0
 20
-116.0
 30
0.0
  9
$EXTMAX
 10
25.0
 20
-46.0
 30
0.0
  9
$LIMMIN
 10
0.0
 20
0.0
  9
$LIMMAX
 10
594.0
 20
420.0
  9
$ORTHOMODE
 70
     0
  9
$REGENMODE
 70
     1
  9
$FILLMODE
 70
     1
  9
$QTEXTMODE
 70
     0
  9
$MIRRTEXT
 70
     0
  9
$LTSCALE
 40
1.0
  9
$ATTMODE
 70
     1
  9
$TEXTSIZE
 40
0.2
  9
$TRACEWID
 40
0.05
  9
$TEXTSTYLE
  7
Standard
  9
$CLAYER
  8
0
  9
$CELTYPE
  6
ByLayer
  9
$CECOLOR
 62
   256
  9
$CELTSCALE
 40
1.0
  9
$DISPSILH
 70
     0
  9
$DIMSCALE
 40
1.0
  9
$DIMASZ
 40
1.799999999999999
  9
$DIMEXO
 40
0.0625
  9
$DIMDLI
 40
0.38
  9
$DIMRND
 40
0.0
  9
$DIMDLE
 40
0.0
  9
$DIMEXE
 40
0.18
  9
$DIMTP
 40
0.0
  9
$DIMTM
 40
0.0
  9
$DIMTXT
 40
0.3499999940395355
  9
$DIMCEN
 40
0.09
  9
$DIMTSZ
 40
0.0
  9
$DIMTOL
 70
     0
  9
$DIMLIM
 70
     0
  9
$DIMTIH
 70
     1
  9
$DIMTOH
 70
     1
  9
$DIMSE1
 70
     0
  9
$DIMSE2
 70
     0
  9
$DIMTAD
 70
     0
  9
$DIMZIN
 70
     0
  9
$DIMBLK
  1

  9
$DIMASO
 70
     1
  9
$DIMSHO
 70
     1
  9
$DIMPOST
  1

  9
$DIMAPOST
  1

  9
$DIMALT
 70
     0
  9
$DIMALTD
 70
     2
  9
$DIMALTF
 40
25.4
  9
$DIMLFAC
 40
1.0
  9
$DIMTOFL
 70
     0
  9
$DIMTVP
 40
0.0
  9
$DIMTIX
 70
     0
  9
$DIMSOXD
 70
     0
  9
$DIMSAH
 70
     0
  9
$DIMBLK1
  1

  9
$DIMBLK2
  1

  9
$DIMSTYLE
  2
Standard
  9
$DIMCLRD
 70
     0
  9
$DIMCLRE
 70
     0
  9
$DIMCLRT
 70
     0
  9
$DIMTFAC
 40
1.0
  9
$DIMGAP
 40
0.09
  9
$DIMJUST
 70
     0
  9
$DIMSD1
 70
     0
  9
$DIMSD2
 70
     0
  9
$DIMTOLJ
 70
     1
  9
$DIMTZIN
 70
     0
  9
$DIMALTZ
 70
     0
  9
$DIMALTTZ
 70
     0
  9
$DIMUPT
 70
     0
  9
$DIMDEC
 70
     4
  9
$DIMTDEC
 70
     4
  9
$DIMALTU
 70
     2
  9
$DIMALTTD
 70
     2
  9
$DIMTXSTY
  7
Standard
  9
$DIMAUNIT
 70
     0
  9
$DIMADEC
 70
     0
  9
$DIMALTRND
 40
0.0
  9
$DIMAZIN
 70
     0
  9
$DIMDSEP
 70
    46
  9
$DIMATFIT
 70
     3
  9
$DIMFRAC
 70
     0
  9
$DIMLDRBLK
  1

  9
$DIMLUNIT
 70
     2
  9
$DIMLWD
 70
    -2
  9
$DIMLWE
 70
    -2
  9
$DIMTMOVE
 70
     0
  9
$LUNITS
 70
     2
  9
$LUPREC
 70
     4
  9
$SKETCHINC
 40
0.1
  9
$FILLETRAD
 40
0.0
  9
$AUNITS
 70
     0
  9
$AUPREC
 70
     0
  9
$MENU
  1
.
  9
$ELEVATION
 40
0.0
  9
$PELEVATION
 40
0.0
  9
$THICKNESS
 40
0.0
  9
$LIMCHECK
 70
     0
  9
$CHAMFERA
 40
0.0
  9
$CHAMFERB
 40
0.0
  9
$CHAMFERC
 40
0.0
  9
$CHAMFERD
 40
0.0
  9
$SKPOLY
 70
     0
  9
$TDCREATE
 40
2454705.824929641
  9
$TDUCREATE
 40
2454705.741596308
  9
$TDUPDATE
 40
2454707.833916192
  9
$TDUUPDATE
 40
2454707.750582859
  9
$TDINDWG
 40
0.0094941667
  9
$TDUSRTIMER
 40
0.0094941667
  9
$USRTIMER
 70
     1
  9
$ANGBASE
 50
0.0
  9
$ANGDIR
 70
     0
  9
$PDMODE
 70
     0
  9
$PDSIZE
 40
0.0
  9
$PLINEWID
 40
0.0
  9
$SPLFRAME
 70
     0
  9
$SPLINETYPE
 70
     6
  9
$SPLINESEGS
 70
     8
  9
$HANDSEED
  5
356
  9
$SURFTAB1
 70
     6
  9
$SURFTAB2
 70
     6
  9
$SURFTYPE
 70
     6
  9
$SURFU
 70
     6
  9
$SURFV
 70
     6
  9
$UCSBASE
  2

  9
$UCSNAME
  2

  9
$UCSORG
 10
0.0
 20
0.0
 30
0.0
  9
$UCSXDIR
 10
1.0
 20
0.0
 30
0.0
  9
$UCSYDIR
 10
0.0
 20
1.0
 30
0.0
  9
$UCSORTHOREF
  2

  9
$UCSORTHOVIEW
 70
     0
  9
$UCSORGTOP
 10
0.0
 20
0.0
 30
0.0
  9
$UCSORGBOTTOM
 10
0.0
 20
0.0
 30
0.0
  9
$UCSORGLEFT
 10
0.0
 20
0.0
 30
0.0
  9
$UCSORGRIGHT
 10
0.0
 20
0.0
 30
0.0
  9
$UCSORGFRONT
 10
0.0
 20
0.0
 30
0.0
  9
$UCSORGBACK
 10
0.0
 20
0.0
 30
0.0
  9
$PUCSBASE
  2

  9
$PUCSNAME
  2

  9
$PUCSORG
 10
0.0
 20
0.0
 30
0.0
  9
$PUCSXDIR
 10
1.0
 20
0.0
 30
0.0
  9
$PUCSYDIR
 10
0.0
 20
1.0
 30
0.0
  9
$PUCSORTHOREF
  2

  9
$PUCSORTHOVIEW
 70
     0
  9
$PUCSORGTOP
 10
0.0
 20
0.0
 30
0.0
  9
$PUCSORGBOTTOM
 10
0.0
 20
0.0
 30
0.0
  9
$PUCSORGLEFT
 10
0.0
 20
0.0
 30
0.0
  9
$PUCSORGRIGHT
 10
0.0
 20
0.0
 30
0.0
  9
$PUCSORGFRONT
 10
0.0
 20
0.0
 30
0.0
  9
$PUCSORGBACK
 10
0.0
 20
0.0
 30
0.0
  9
$USERI1
 70
     0
  9
$USERI2
 70
     0
  9
$USERI3
 70
     0
  9
$USERI4
 70
     0
  9
$USERI5
 70
     0
  9
$USERR1
 40
0.0
  9
$USERR2
 40
0.0
  9
$USERR3
 40
0.0
  9
$USERR4
 40
0.0
  9
$USERR5
 40
0.0
  9
$WORLDVIEW
 70
     1
  9
$SHADEDGE
 70
     3
  9
$SHADEDIF
 70
    70
  9
$TILEMODE
 70
     1
  9
$MAXACTVP
 70
    64
  9
$PINSBASE
 10
0.0
 20
0.0
 30
0.0
  9
$PLIMCHECK
 70
     0
  9
$PEXTMIN
 10
0.0
 20
0.0
 30
0.0
  9
$PEXTMAX
 10
594.0
 20
420.0
 30
0.0
  9
$PLIMMIN
 10
0.0
 20
0.0
  9
$PLIMMAX
 10
594.0
 20
420.0
  9
$UNITMODE
 70
     0
  9
$VISRETAIN
 70
     1
  9
$PLINEGEN
 70
     0
  9
$PSLTSCALE
 70
     1
  9
$TREEDEPTH
 70
  3020
  9
$CMLSTYLE
  2
Standard
  9
$CMLJUST
 70
     0
  9
$CMLSCALE
 40
1.0
  9
$PROXYGRAPHICS
 70
     1
  9
$MEASUREMENT
 70
     1
  9
$CELWEIGHT
370
    -1
  9
$ENDCAPS
280
     0
  9
$JOINSTYLE
280
     0
  9
$LWDISPLAY
290
     0
  9
$INSUNITS
 70
     0
  9
$HYPERLINKBASE
  1

  9
$STYLESHEET
  1

  9
$XEDIT
290
     1
  9
$CEPSNTYPE
380
     0
  9
$PSTYLEMODE
290
     1
  9
$FINGERPRINTGUID
  2
{78FA1355-1C41-47C0-8E9D-105AA7B5C59A}
  9
$VERSIONGUID
  2
{6F820F57-8EE7-421F-9F80-9689E747AF22}
  9
$EXTNAMES
290
     1
  9
$PSVPSCALE
 40
0.0
  9
$OLESTARTUP
290
     0
  9
$SORTENTS
280
   127
  9
$INDEXCTL
280
     0
  9
$HIDETEXT
280
     1
  9
$XCLIPFRAME
290
     0
  9
$HALOGAP
280
     0
  9
$OBSCOLOR
 70
   257
  9
$OBSLTYPE
280
     0
  9
$INTERSECTIONDISPLAY
280
     0
  9
$INTERSECTIONCOLOR
 70
   257
  9
$DIMASSOC
280
     1
  9
$PROJECTNAME
  1

  0
ENDSEC
  0
SECTION
  2
CLASSES
  0
CLASS
  1
ACDBDICTIONARYWDFLT
  2
AcDbDictionaryWithDefault
  3
ObjectDBX Classes
 90
        0
 91
        1
280
     0
281
     0
  0
CLASS
  1
TABLESTYLE
  2
AcDbTableStyle
  3
ObjectDBX Classes
 90
     2047
 91
        1
280
     0
281
     0
  0
CLASS
  1
DICTIONARYVAR
  2
AcDbDictionaryVar
  3
ObjectDBX Classes
 90
        0
 91
        1
280
     0
281
     0
  0
CLASS
  1
ACME_DOCUMENT
  2
AcMeDbDoc
  3
AcMeServices
 90
        0
 91
        2
280
     0
281
     0
  0
CLASS
  1
AMGSETTINGSOBJ
  2
AmgSettingsObj
  3
"AcadM|Product Description: AutoCAD Mechanical 2000|Company: Autodesk"
 90
        0
 91
        2
280
     0
281
     0
  0
CLASS
  1
ACMESCOPE
  2
AcMeScope
  3
AcMeServices
 90
        0
 91
        1
280
     0
281
     0
  0
CLASS
  1
ACMECOMMANDHISTORY
  2
AcMeCommandHistory
  3
AcMeServices
 90
        0
 91
        1
280
     0
281
     0
  0
CLASS
  1
ACIMSYSVARMAN
  2
AcImSysVarManager
  3
AcMeServices
 90
        0
 91
        5
280
     0
281
     0
  0
CLASS
  1
ACIMINTSYSVAR
  2
AcImIntSysVar
  3
AcMeServices
 90
        0
 91
       26
280
     0
281
     0
  0
CLASS
  1
ACMEDRAWINGMAN
  2
AcMeDrawingMan
  3
AcMeServices
 90
        0
 91
        1
280
     0
281
     0
  0
CLASS
  1
ACMEVIEW
  2
AcMeView
  3
AcMeServices
 90
        0
 91
        1
280
     0
281
     0
  0
CLASS
  1
ACDBENTITYCACHE
  2
AcMeEntityCache
  3
AcMeServices
 90
        0
 91
        1
280
     0
281
     0
  0
CLASS
  1
GSMANAGER
  2
AcMeGSManager
  3
AcMeServices
 90
        0
 91
        1
280
     0
281
     0
  0
CLASS
  1
AMDTINTERNALREACTOR
  2
AmdtInternalReactor
  3
AcMeServices
 90
        0
 91
        2
280
     0
281
     0
  0
CLASS
  1
ACMESTATEMGR
  2
AcMeStateMgr
  3
AcMeServices
 90
        0
 91
        1
280
     0
281
     0
  0
CLASS
  1
ACGREFMASTER
  2
AcGrefMaster
  3
AcAttribServices
 90
        0
 91
        1
280
     0
281
     0
  0
CLASS
  1
AM_DRAWING_MGR
  2
AcDmDwgMgr
  3
AcMechDwgViewMgmt
 90
        0
 91
        1
280
     0
281
     0
  0
CLASS
  1
AM_DWG_DOCUMENT
  2
AcDmDwgDocument
  3
AcMechDwgViewMgmt
 90
        0
 91
        1
280
     0
281
     0
  0
CLASS
  1
AM_DWG_SHEET
  2
AcDmSheet
  3
AcMechDwgViewMgmt
 90
        0
 91
        2
280
     0
281
     0
  0
CLASS
  1
AM_VIEWDIMPARMAP
  2
AcDmViewDimParMap
  3
AcMechDwgViewMgmt
 90
        0
 91
        2
280
     0
281
     0
  0
CLASS
  1
ACIMREALSYSVAR
  2
AcImRealSysVar
  3
AcMeServices
 90
        0
 91
        1
280
     0
281
     0
  0
CLASS
  1
AM_DWGMGR_NAME
  2
AcDmDwgMgrName
  3
AcMechDwgViewMgmt
 90
        0
 91
        1
280
     0
281
     0
  0
CLASS
  1
ACME_DATABASE
  2
AcMeDbDatabase
  3
AcMeServices
 90
        0
 91
        1
280
     0
281
     0
  0
CLASS
  1
ACRFINSADJUSTERMGR
  2
AcRfInsAdjusterMgr
  3
AcMeServices
 90
        0
 91
        1
280
     0
281
     0
  0
CLASS
  1
ACGREFACADMASTER
  2
AcGrefacadMaster
  3
AcGrefServices
 90
        0
 91
        1
280
     0
281
     0
  0
CLASS
  1
AMDTMENUSTATEMGR
  2
AmdtMenuStateMgr
  3
McadcomServices
 90
        0
 91
        1
280
     0
281
     0
  0
CLASS
  1
AMDTMCOMMENUSTATE
  2
AmdtMcomMenuState
  3
McadcomServices
 90
        0
 91
        1
280
     0
281
     0
  0
CLASS
  1
AMIMASTER
  2
AmiMaster
  3
AmiServices
 90
        0
 91
        1
280
     0
281
     0
  0
CLASS
  1
MAPIAMMOUDLE
  2
MApiAmModule
  3
MApiAmServices
 90
        0
 91
        1
280
     0
281
     0
  0
CLASS
  1
ACIMSTRSYSVAR
  2
AcImStrSysVar
  3
AcMeServices
 90
        0
 91
        5
280
     0
281
     0
  0
CLASS
  1
AMDTADMENUSTATE
  2
AmdtAdMenuState
  3
DesignerServices
 90
        0
 91
        1
280
     0
281
     0
  0
CLASS
  1
ADAPPL
  2
AcAdAppl
  3
DesignerServices
 90
        0
 91
        1
280
     0
281
     0
  0
CLASS
  1
DEPMGR
  2
AcAdDepMgr
  3
DesignerServices
 90
        0
 91
        1
280
     0
281
     0
  0
CLASS
  1
PARAMMGR
  2
AcAdParamMgr
  3
DesignerServices
 90
        0
 91
        1
280
     0
281
     0
  0
CLASS
  1
PARAMSCOPE
  2
AcAdParamScope
  3
DesignerServices
 90
        0
 91
        1
280
     0
281
     0
  0
CLASS
  1
NAMEDAPPL
  2
AcAdNamedAppl
  3
DesignerServices
 90
        0
 91
        1
280
     0
281
     0
  0
CLASS
  1
AMDTDMMENUSTATE
  2
AmdtDmMenuState
  3
AcMechDwgViewMgmt
 90
        0
 91
        1
280
     0
281
     0
  0
CLASS
  1
AMDTAMMENUSTATE
  2
AmdtAmMenuState
  3
DesignerAssemblies
 90
        0
 91
        1
280
     0
281
     0
  0
CLASS
  1
ACAMPROJECT
  2
AcAmProject
  3
DesignerAssemblies
 90
        0
 91
        1
280
     0
281
     0
  0
CLASS
  1
ACAMGRCOMPDEF
  2
AcAmGrCompDef
  3
DesignerAssemblies
 90
        0
 91
        1
280
     0
281
     0
  0
CLASS
  1
ACCMCONTEXT
  2
AcCmContext
  3
DesignerAssemblies
 90
        0
 91
        1
280
     0
281
     0
  0
CLASS
  1
ACAMCOMPDEF
  2
AcAmCompDef
  3
DesignerAssemblies
 90
        0
 91
        1
280
     0
281
     0
  0
CLASS
  1
ACAMCOMPDEFMGR
  2
AcAmCompDefMgr
  3
DesignerAssemblies
 90
        0
 91
        1
280
     0
281
     0
  0
CLASS
  1
AMCONTEXTMGR
  2
AcAmContextMgr
  3
DesignerAssemblies
 90
        0
 91
        1
280
     0
281
     0
  0
CLASS
  1
ACAMCONTEXTMODELER
  2
AcAmContextModeler
  3
DesignerAssemblies
 90
        0
 91
        1
280
     0
281
     0
  0
CLASS
  1
ACMDATADICTIONARY
  2
AcmDataDictionary
  3
"AcmSymBB|Product Description: AutoCAD Mechanical 2004 DX|Company: Autodesk"
 90
        0
 91
        1
280
     0
281
     0
  0
CLASS
  1
CATALOGSTATE
  2
AcAmCatalogState
  3
DesignerAssemblies
 90
        0
 91
        1
280
     0
281
     0
  0
CLASS
  1
ACAMGRCOMPDEFSET
  2
AcAmGrCompDefSet
  3
DesignerAssemblies
 90
        0
 91
        1
280
     0
281
     0
  0
CLASS
  1
AMDTBROWSERDBTAB
  2
AmdtBrowserDbTab
  3
McadcomServices
 90
        0
 91
        1
280
     0
281
     0
  0
CLASS
  1
CBROWSERAPPOBJECT
  2
CBrowserAppObject
  3
McadcomServices
 90
        0
 91
        3
280
     0
281
     0
  0
CLASS
  1
DM_PLACEHOLDER
  2
AcDmSelsetPlaceholder
  3
AcMechDwgViewMgmt
 90
        0
 91
        1
280
     0
281
     0
  0
CLASS
  1
EXACXREFPANELOBJECT
  2
ExAcXREFPanelObject
  3
EXAC_ESW
 90
        0
 91
        1
280
     0
281
     0
  0
CLASS
  1
ACMSTANDARDDIN
  2
AcmStandardDIN
  3
"Amdt_StdImp|Product Description: AutoCAD Mechanical 2004 DX|Company: Autodesk"
 90
        0
 91
        1
280
     0
281
     0
  0
CLASS
  1
AMGOBJPROPCFG
  2
AmgObjPropCfg
  3
"AmgLay|Product Description: AutoCAD Mechanical 2000|Company: Autodesk"
 90
        1
 91
        1
280
     0
281
     0
  0
CLASS
  1
AMDTEDGESTANDARDDIN13715
  2
AmdtEdgeStdDIN13715
  3
"Amdt_StdImp|Product Description: AutoCAD Mechanical 2004 DX|Company: Autodesk"
 90
        0
 91
        1
280
     0
281
     0
  0
CLASS
  1
ACMSURFSTANDARDDIN
  2
AcmSurfTextStdDIN
  3
"Amdt_StdImp|Product Description: AutoCAD Mechanical 2004 DX|Company: Autodesk"
 90
        0
 91
        1
280
     0
281
     0
  0
CLASS
  1
ACMFCFSTANDARDDIN
  2
AcmFCFStdDIN
  3
"Amdt_StdImp|Product Description: AutoCAD Mechanical 2004 DX|Company: Autodesk"
 90
        0
 91
        1
280
     0
281
     0
  0
CLASS
  1
ACMWELDSTANDARDDIN
  2
AcmWeldingStdDIN
  3
"Amdt_StdImp|Product Description: AutoCAD Mechanical 2004 DX|Company: Autodesk"
 90
        0
 91
        1
280
     0
281
     0
  0
CLASS
  1
ACMIDSTANDARDDIN
  2
AcmIdStdDIN
  3
"Amdt_StdImp|Product Description: AutoCAD Mechanical 2004 DX|Company: Autodesk"
 90
        0
 91
        1
280
     0
281
     0
  0
CLASS
  1
ACMDATUMSTANDARDDIN
  2
AcmDatumStdDIN
  3
"Amdt_StdImp|Product Description: AutoCAD Mechanical 2004 DX|Company: Autodesk"
 90
        0
 91
        1
280
     0
281
     0
  0
CLASS
  1
ACMBOMSTANDARDDIN
  2
AcmBOMStdDIN
  3
"Amdt_StdImp|Product Description: AutoCAD Mechanical 2004 DX|Company: Autodesk"
 90
        0
 91
        1
280
     0
281
     0
  0
CLASS
  1
ACMDETAILSTANDARDDIN
  2
AmdtDetailSymStdDIN
  3
"Amdt_StdImp|Product Description: AutoCAD Mechanical 2004 DX|Company: Autodesk"
 90
        0
 91
        1
280
     0
281
     0
  0
CLASS
  1
ACMSECTIONSTANDARDDIN
  2
AmdtSectionSymStdDIN
  3
"Amdt_StdImp|Product Description: AutoCAD Mechanical 2004 DX|Company: Autodesk"
 90
        0
 91
        1
280
     0
281
     0
  0
CLASS
  1
ACMCENTERLINESTANDARDDIN
  2
AmdtCenterLineStdDIN
  3
"Amdt_StdImp|Product Description: AutoCAD Mechanical 2004 DX|Company: Autodesk"
 90
        0
 91
        1
280
     0
281
     0
  0
CLASS
  1
ACMTHREADLINESTANDARDDIN
  2
AmdtThreadLineStdDIN
  3
"Amdt_StdImp|Product Description: AutoCAD Mechanical 2004 DX|Company: Autodesk"
 90
        0
 91
        1
280
     0
281
     0
  0
CLASS
  1
ACMNOTESTANDARDDIN
  2
AmdtNoteStdDIN
  3
"Amdt_StdImp|Product Description: AutoCAD Mechanical 2004 DX|Company: Autodesk"
 90
        0
 91
        1
280
     0
281
     0
  0
CLASS
  1
AMDTNOTETEMPLATEDB
  2
AmdtNoteTemplateDB
  3
AMDT_STDIMP_MODULE_NAME
 90
        0
 91
        6
280
     0
281
     0
  0
CLASS
  1
ACAMGLAYSTD
  2
AcAmgLayStd
  3
"AcAmgLayStd|Product Description: AutoCAD Mechanical 2000|Company: Autodesk"
 90
        0
 91
        1
280
     0
281
     0
  0
CLASS
  1
ACAMGDIMSTD
  2
AcAmgDimStd
  3
"AcAmgDimStd|Product Description: AutoCAD Mechanical 2000|Company: Autodesk"
 90
        0
 91
        1
280
     0
281
     0
  0
CLASS
  1
ACAMGHOLECHARTSTDDIN
  2
AcAmgHoleChartStdDIN
  3
ACMSYMBB_MODULE_NAME
 90
        0
 91
        1
280
     0
281
     0
  0
CLASS
  1
ACAMGTITLESTD
  2
AcAmgTitleStd
  3
"TITLEAPP"
 90
        0
 91
        1
280
     0
281
     0
  0
CLASS
  1
ACMDATAENTRYPART
  2
AcmDataEntryPart
  3
"AcmSymBB|Product Description: AutoCAD Mechanical 2004 DX|Company: Autodesk"
 90
        0
 91
        0
280
     0
281
     0
  0
CLASS
  1
ACMPARTREF
  2
AcmPartRef
  3
"AcmSymBB|Product Description: AutoCAD Mechanical 2004 DX|Company: Autodesk"
 90
     1023
 91
        0
280
     0
281
     1
  0
CLASS
  1
ACAMGFILTERDAT
  2
AcAmgFilterDat
  3
"AcadM|Product Description: AutoCAD Mechanical 2000|Company: Autodesk"
 90
        0
 91
        0
280
     0
281
     0
  0
CLASS
  1
ACRFATTGENMGR
  2
AcRfAttGeneralMgr
  3
AcAttribServices
 90
        0
 91
        2
280
     0
281
     0
  0
CLASS
  1
ACAD_EVALUATION_GRAPH
  2
AcDbEvalGraph
  3
ObjectDBX Classes
 90
     1153
 91
        1
280
     0
281
     0
  0
CLASS
  1
ACAECUSTOBJ
  2
AcAeEditorObj
  3
AcAeEditorObj
 90
     1024
 91
        1
280
     0
281
     0
  0
ENDSEC
  0
SECTION
  2
TABLES
  0
TABLE
  2
VPORT
  5
8
330
0
100
AcDbSymbolTable
 70
     6
  0
VPORT
  5
355
330
8
100
AcDbSymbolTableRecord
100
AcDbViewportTableRecord
  2
*Active
 70
     0
 10
0.0
 20
0.0
 11
1.0
 21
1.0
 12
21.60315703758563
 22
-81.00265479914748
 13
0.0
 23
0.0
 14
1.0
 24
1.0
 15
0.0
 25
0.0
 16
0.0
 26
0.0
 36
1.0
 17
0.0
 27
0.0
 37
0.0
 40
93.83295620616513
 41
1.257142857142857
 42
50.0
 43
0.0
 44
0.0
 50
0.0
 51
0.0
 71
     0
 72
   100
 73
     1
 74
     1
 75
     0
 76
     0
 77
     0
 78
     0
281
     0
 65
     1
110
0.0
120
0.0
130
0.0
111
1.0
121
0.0
131
0.0
112
0.0
122
1.0
132
0.0
 79
     0
146
0.0
  0
ENDTAB
  0
TABLE
  2
LTYPE
  5
5
330
0
100
AcDbSymbolTable
 70
    74
  0
LTYPE
  5
14
330
5
100
AcDbSymbolTableRecord
100
AcDbLinetypeTableRecord
  2
ByBlock
 70
     0
  3

 72
    65
 73
     0
 40
0.0
  0
LTYPE
  5
15
330
5
100
AcDbSymbolTableRecord
100
AcDbLinetypeTableRecord
  2
ByLayer
 70
     0
  3

 72
    65
 73
     0
 40
0.0
  0
LTYPE
  5
16
330
5
100
AcDbSymbolTableRecord
100
AcDbLinetypeTableRecord
  2
Continuous
 70
     0
  3
Solid line
 72
    65
 73
     0
 40
0.0
  0
LTYPE
  5
2C
330
5
100
AcDbSymbolTableRecord
100
AcDbLinetypeTableRecord
  2
Section_View_Lines
 70
     0
  3
Section View Lines
 72
    65
 73
     4
 40
0.8406
 49
0.6614
 74
     0
 49
-0.0827
 74
     0
 49
0.0138
 74
     0
 49
-0.0827
 74
     0
  0
LTYPE
  5
2D
330
5
100
AcDbSymbolTableRecord
100
AcDbLinetypeTableRecord
  2
CHAIN
 70
     0
  3
Chain ____ _ ____ _ ____ _ ____ _ ____ _ ____
 72
    65
 73
     4
 40
0.3543
 49
0.2362
 74
     0
 49
-0.0295
 74
     0
 49
0.0591
 74
     0
 49
-0.0295
 74
     0
  0
LTYPE
  5
2E
330
5
100
AcDbSymbolTableRecord
100
AcDbLinetypeTableRecord
  2
DASH_DOT
 70
     0
  3
Dash dot _._._._._._._._._._._._._._._.
 72
    65
 73
     4
 40
0.37
 49
0.24
 74
     0
 49
-0.06
 74
     0
 49
0.01
 74
     0
 49
-0.06
 74
     0
  0
LTYPE
  5
2F
330
5
100
AcDbSymbolTableRecord
100
AcDbLinetypeTableRecord
  2
DASH_DOUBLE_DOT
 70
     0
  3
Dash Double Dot __ __ . __ __ . __ __ . __ _
 72
    65
 73
     6
 40
0.4398
 49
0.24
 74
     0
 49
-0.06
 74
     0
 49
0.0098
 74
     0
 49
-0.06
 74
     0
 49
0.01
 74
     0
 49
-0.06
 74
     0
  0
LTYPE
  5
30
330
5
100
AcDbSymbolTableRecord
100
AcDbLinetypeTableRecord
  2
DASH_TRIPLE_DOT
 70
     0
  3
Dash Triple-Dot _ . . . _ . . . _ . . . _
 72
    65
 73
     8
 40
0.51
 49
0.24
 74
     0
 49
-0.06
 74
     0
 49
0.01
 74
     0
 49
-0.06
 74
     0
 49
0.01
 74
     0
 49
-0.06
 74
     0
 49
0.01
 74
     0
 49
-0.06
 74
     0
  0
LTYPE
  5
31
330
5
100
AcDbSymbolTableRecord
100
AcDbLinetypeTableRecord
  2
DASHED
 70
     0
  3
Dashed __ __ __ __ __ __ __ __ __ __ __ __ __ _
 72
    65
 73
     2
 40
0.2067
 49
0.1654
 74
     0
 49
-0.0413
 74
     0
  0
LTYPE
  5
32
330
5
100
AcDbSymbolTableRecord
100
AcDbLinetypeTableRecord
  2
DASHED_SPACE
 70
     0
  3
Dashed Space _._._._._._._._._._._._._._._.
 72
    65
 73
     2
 40
0.2067
 49
0.1654
 74
     0
 49
-0.0413
 74
     0
  0
LTYPE
  5
33
330
5
100
AcDbSymbolTableRecord
100
AcDbLinetypeTableRecord
  2
DOTTED
 70
     0
  3
Dotted . . . . . . . . . . . . . . . . . . . . 
 72
    65
 73
     2
 40
0.0482
 49
0.0069
 74
     0
 49
-0.0413
 74
     0
  0
LTYPE
  5
34
330
5
100
AcDbSymbolTableRecord
100
AcDbLinetypeTableRecord
  2
DOUBLE_DASH_CHAIN
 70
     0
  3
Double Dash Chain ___ _ _ ___ _ _ ___ _ _ ___ _
 72
    65
 73
     6
 40
1.240299999999999
 49
0.6614
 74
     0
 49
-0.0827
 74
     0
 49
0.1654
 74
     0
 49
-0.0827
 74
     0
 49
0.1654
 74
     0
 49
-0.0827
 74
     0
  0
LTYPE
  5
35
330
5
100
AcDbSymbolTableRecord
100
AcDbLinetypeTableRecord
  2
DOUBLE_DASH_DOT
 70
     0
  3
Double Dash Dot __ __ . __ __ . __ __ . __ _
 72
    65
 73
     6
 40
0.67
 49
0.24
 74
     0
 49
-0.06
 74
     0
 49
0.24
 74
     0
 49
-0.06
 74
     0
 49
0.01
 74
     0
 49
-0.06
 74
     0
  0
LTYPE
  5
36
330
5
100
AcDbSymbolTableRecord
100
AcDbLinetypeTableRecord
  2
DOUBLE_DASH_DOUBLE_DOT
 70
     0
  3
Double-dash double-dot _ _ . . _ _ . . _
 72
    65
 73
     8
 40
0.7400000000000001
 49
0.24
 74
     0
 49
-0.06
 74
     0
 49
0.24
 74
     0
 49
-0.06
 74
     0
 49
0.01
 74
     0
 49
-0.06
 74
     0
 49
0.01
 74
     0
 49
-0.06
 74
     0
  0
LTYPE
  5
37
330
5
100
AcDbSymbolTableRecord
100
AcDbLinetypeTableRecord
  2
DOUBLE_DASH_TRIPLE_DOT
 70
     0
  3
Double Dash Triple Dot __ __ . . . __ __ . . .
 72
    65
 73
    10
 40
0.8100000000000001
 49
0.24
 74
     0
 49
-0.06
 74
     0
 49
0.24
 74
     0
 49
-0.06
 74
     0
 49
0.01
 74
     0
 49
-0.06
 74
     0
 49
0.01
 74
     0
 49
-0.06
 74
     0
 49
0.01
 74
     0
 49
-0.06
 74
     0
  0
LTYPE
  5
38
330
5
100
AcDbSymbolTableRecord
100
AcDbLinetypeTableRecord
  2
LONG_DASH_DOTTED
 70
     0
  3
Long-Dash Dot ____ . ____ . ____ . ____ . _
 72
    65
 73
     4
 40
0.3001
 49
0.2362
 74
     0
 49
-0.0295
 74
     0
 49
0.0049
 74
     0
 49
-0.0295
 74
     0
  0
LTYPE
  5
39
330
5
100
AcDbSymbolTableRecord
100
AcDbLinetypeTableRecord
  2
LONG_DASH_DOUBLE_DOT
 70
     0
  3
Long Dash Double Dot ____ . . ____ . . ____ . .
 72
    65
 73
     6
 40
0.3345
 49
0.2362
 74
     0
 49
-0.0295
 74
     0
 49
0.0049
 74
     0
 49
-0.0295
 74
     0
 49
0.0049
 74
     0
 49
-0.0295
 74
     0
  0
LTYPE
  5
3A
330
5
100
AcDbSymbolTableRecord
100
AcDbLinetypeTableRecord
  2
LONG_DASH_TRIPLE_DOT
 70
     0
  3
Long Dash Triple Dot ____ ... ____ ... ____
 72
    65
 73
     8
 40
0.75
 49
0.48
 74
     0
 49
-0.06
 74
     0
 49
0.01
 74
     0
 49
-0.06
 74
     0
 49
0.01
 74
     0
 49
-0.06
 74
     0
 49
0.01
 74
     0
 49
-0.06
 74
     0
  0
LTYPE
  5
3B
330
5
100
AcDbSymbolTableRecord
100
AcDbLinetypeTableRecord
  2
BORDER
 70
     0
  3
Border __ __ . __ __ . __ __ . __ __ . __ __ .
 72
    65
 73
     6
 40
44.45
 49
12.7
 74
     0
 49
-6.349999999999999
 74
     0
 49
12.7
 74
     0
 49
-6.349999999999999
 74
     0
 49
0.0
 74
     0
 49
-6.349999999999999
 74
     0
  0
LTYPE
  5
3C
330
5
100
AcDbSymbolTableRecord
100
AcDbLinetypeTableRecord
  2
BORDER2
 70
     0
  3
Border (.5x) __.__.__.__.__.__.__.__.__.__.__.
 72
    65
 73
     6
 40
22.225
 49
6.349999999999999
 74
     0
 49
-3.174999999999999
 74
     0
 49
6.349999999999999
 74
     0
 49
-3.174999999999999
 74
     0
 49
0.0
 74
     0
 49
-3.174999999999999
 74
     0
  0
LTYPE
  5
3D
330
5
100
AcDbSymbolTableRecord
100
AcDbLinetypeTableRecord
  2
BORDERX2
 70
     0
  3
Border (2x) ____  ____  .  ____  ____  .  ___
 72
    65
 73
     6
 40
88.9
 49
25.4
 74
     0
 49
-12.7
 74
     0
 49
25.4
 74
     0
 49
-12.7
 74
     0
 49
0.0
 74
     0
 49
-12.7
 74
     0
  0
LTYPE
  5
3E
330
5
100
AcDbSymbolTableRecord
100
AcDbLinetypeTableRecord
  2
CENTER
 70
     0
  3
Center ____ _ ____ _ ____ _ ____ _ ____ _ ____
 72
    65
 73
     4
 40
50.8
 49
31.75
 74
     0
 49
-6.349999999999999
 74
     0
 49
6.349999999999999
 74
     0
 49
-6.349999999999999
 74
     0
  0
LTYPE
  5
3F
330
5
100
AcDbSymbolTableRecord
100
AcDbLinetypeTableRecord
  2
CENTER2
 70
     0
  3
Center (.5x) ___ _ ___ _ ___ _ ___ _ ___ _ ___
 72
    65
 73
     4
 40
28.575
 49
19.05
 74
     0
 49
-3.174999999999999
 74
     0
 49
3.174999999999999
 74
     0
 49
-3.174999999999999
 74
     0
  0
LTYPE
  5
40
330
5
100
AcDbSymbolTableRecord
100
AcDbLinetypeTableRecord
  2
CENTERX2
 70
     0
  3
Center (2x) ________  __  ________  __  _____
 72
    65
 73
     4
 40
101.6
 49
63.5
 74
     0
 49
-12.7
 74
     0
 49
12.7
 74
     0
 49
-12.7
 74
     0
  0
LTYPE
  5
41
330
5
100
AcDbSymbolTableRecord
100
AcDbLinetypeTableRecord
  2
DASHDOT2
 70
     0
  3
Dash dot (.5x) _._._._._._._._._._._._._._._.
 72
    65
 73
     4
 40
12.7
 49
6.349999999999999
 74
     0
 49
-3.174999999999999
 74
     0
 49
0.0
 74
     0
 49
-3.174999999999999
 74
     0
  0
LTYPE
  5
42
330
5
100
AcDbSymbolTableRecord
100
AcDbLinetypeTableRecord
  2
DASHDOTX2
 70
     0
  3
Dash dot (2x) ____  .  ____  .  ____  .  ___
 72
    65
 73
     4
 40
50.8
 49
25.4
 74
     0
 49
-12.7
 74
     0
 49
0.0
 74
     0
 49
-12.7
 74
     0
  0
LTYPE
  5
43
330
5
100
AcDbSymbolTableRecord
100
AcDbLinetypeTableRecord
  2
DASHED2
 70
     0
  3
Dashed (.5x) _ _ _ _ _ _ _ _ _ _ _ _ _ _ _ _ _
 72
    65
 73
     2
 40
9.524999999999998
 49
6.349999999999999
 74
     0
 49
-3.174999999999999
 74
     0
  0
LTYPE
  5
44
330
5
100
AcDbSymbolTableRecord
100
AcDbLinetypeTableRecord
  2
DASHEDX2
 70
     0
  3
Dashed (2x) ____  ____  ____  ____  ____  ___
 72
    65
 73
     2
 40
38.1
 49
25.4
 74
     0
 49
-12.7
 74
     0
  0
LTYPE
  5
45
330
5
100
AcDbSymbolTableRecord
100
AcDbLinetypeTableRecord
  2
DIVIDE
 70
     0
  3
Divide ____ . . ____ . . ____ . . ____ . . ____
 72
    65
 73
     6
 40
31.75
 49
12.7
 74
     0
 49
-6.349999999999999
 74
     0
 49
0.0
 74
     0
 49
-6.349999999999999
 74
     0
 49
0.0
 74
     0
 49
-6.349999999999999
 74
     0
  0
LTYPE
  5
46
330
5
100
AcDbSymbolTableRecord
100
AcDbLinetypeTableRecord
  2
DIVIDE2
 70
     0
  3
Divide (.5x) __..__..__..__..__..__..__..__.._
 72
    65
 73
     6
 40
15.875
 49
6.349999999999999
 74
     0
 49
-3.174999999999999
 74
     0
 49
0.0
 74
     0
 49
-3.174999999999999
 74
     0
 49
0.0
 74
     0
 49
-3.174999999999999
 74
     0
  0
LTYPE
  5
47
330
5
100
AcDbSymbolTableRecord
100
AcDbLinetypeTableRecord
  2
DIVIDEX2
 70
     0
  3
Divide (2x) ________  .  .  ________  .  .  _
 72
    65
 73
     6
 40
63.49999999999999
 49
25.4
 74
     0
 49
-12.7
 74
     0
 49
0.0
 74
     0
 49
-12.7
 74
     0
 49
0.0
 74
     0
 49
-12.7
 74
     0
  0
LTYPE
  5
48
330
5
100
AcDbSymbolTableRecord
100
AcDbLinetypeTableRecord
  2
DOT
 70
     0
  3
Dot . . . . . . . . . . . . . . . . . . . . . .
 72
    65
 73
     2
 40
6.349999999999999
 49
0.0
 74
     0
 49
-6.349999999999999
 74
     0
  0
LTYPE
  5
49
330
5
100
AcDbSymbolTableRecord
100
AcDbLinetypeTableRecord
  2
DOT2
 70
     0
  3
Dot (.5x) .....................................
 72
    65
 73
     2
 40
3.174999999999999
 49
0.0
 74
     0
 49
-3.174999999999999
 74
     0
  0
LTYPE
  5
4A
330
5
100
AcDbSymbolTableRecord
100
AcDbLinetypeTableRecord
  2
DOTX2
 70
     0
  3
Dot (2x) .  .  .  .  .  .  .  .  .  .  .  .  . 
 72
    65
 73
     2
 40
12.7
 49
0.0
 74
     0
 49
-12.7
 74
     0
  0
LTYPE
  5
4B
330
5
100
AcDbSymbolTableRecord
100
AcDbLinetypeTableRecord
  2
HIDDEN
 70
     0
  3
Hidden __ __ __ __ __ __ __ __ __ __ __ __ __ _
 72
    65
 73
     2
 40
9.524999999999998
 49
6.349999999999999
 74
     0
 49
-3.174999999999999
 74
     0
  0
LTYPE
  5
4C
330
5
100
AcDbSymbolTableRecord
100
AcDbLinetypeTableRecord
  2
HIDDEN2
 70
     0
  3
Hidden (.5x) _ _ _ _ _ _ _ _ _ _ _ _ _ _ _ _ _
 72
    65
 73
     2
 40
4.762499999999999
 49
3.174999999999999
 74
     0
 49
-1.587499999999999
 74
     0
  0
LTYPE
  5
4D
330
5
100
AcDbSymbolTableRecord
100
AcDbLinetypeTableRecord
  2
HIDDENX2
 70
     0
  3
Hidden (2x) ____ ____ ____ ____ ____ ____ ____
 72
    65
 73
     2
 40
19.05
 49
12.7
 74
     0
 49
-6.349999999999999
 74
     0
  0
LTYPE
  5
4E
330
5
100
AcDbSymbolTableRecord
100
AcDbLinetypeTableRecord
  2
PHANTOM
 70
     0
  3
Phantom ______  __  __  ______  __  __  ______
 72
    65
 73
     6
 40
63.5
 49
31.75
 74
     0
 49
-6.349999999999999
 74
     0
 49
6.349999999999999
 74
     0
 49
-6.349999999999999
 74
     0
 49
6.349999999999999
 74
     0
 49
-6.349999999999999
 74
     0
  0
LTYPE
  5
4F
330
5
100
AcDbSymbolTableRecord
100
AcDbLinetypeTableRecord
  2
PHANTOM2
 70
     0
  3
Phantom (.5x) ___ _ _ ___ _ _ ___ _ _ ___ _ _
 72
    65
 73
     6
 40
31.75
 49
15.875
 74
     0
 49
-3.174999999999999
 74
     0
 49
3.174999999999999
 74
     0
 49
-3.174999999999999
 74
     0
 49
3.174999999999999
 74
     0
 49
-3.174999999999999
 74
     0
  0
LTYPE
  5
50
330
5
100
AcDbSymbolTableRecord
100
AcDbLinetypeTableRecord
  2
PHANTOMX2
 70
     0
  3
Phantom (2x) ____________    ____    ____   _
 72
    65
 73
     6
 40
127.0
 49
63.5
 74
     0
 49
-12.7
 74
     0
 49
12.7
 74
     0
 49
-12.7
 74
     0
 49
12.7
 74
     0
 49
-12.7
 74
     0
  0
LTYPE
  5
51
330
5
100
AcDbSymbolTableRecord
100
AcDbLinetypeTableRecord
  2
ACAD_ISO02W100
 70
     0
  3
ISO dash __ __ __ __ __ __ __ __ __ __ __ __ __
 72
    65
 73
     2
 40
15.0
 49
12.0
 74
     0
 49
-3.0
 74
     0
  0
LTYPE
  5
52
330
5
100
AcDbSymbolTableRecord
100
AcDbLinetypeTableRecord
  2
ACAD_ISO03W100
 70
     0
  3
ISO dash space __    __    __    __    __    __
 72
    65
 73
     2
 40
30.0
 49
12.0
 74
     0
 49
-18.0
 74
     0
  0
LTYPE
  5
53
330
5
100
AcDbSymbolTableRecord
100
AcDbLinetypeTableRecord
  2
ACAD_ISO04W100
 70
     0
  3
ISO long-dash dot ____ . ____ . ____ . ____ . _
 72
    65
 73
     4
 40
30.0
 49
24.0
 74
     0
 49
-3.0
 74
     0
 49
0.0
 74
     0
 49
-3.0
 74
     0
  0
LTYPE
  5
54
330
5
100
AcDbSymbolTableRecord
100
AcDbLinetypeTableRecord
  2
ACAD_ISO05W100
 70
     0
  3
ISO long-dash double-dot ____ .. ____ .. ____ .
 72
    65
 73
     6
 40
33.0
 49
24.0
 74
     0
 49
-3.0
 74
     0
 49
0.0
 74
     0
 49
-3.0
 74
     0
 49
0.0
 74
     0
 49
-3.0
 74
     0
  0
LTYPE
  5
55
330
5
100
AcDbSymbolTableRecord
100
AcDbLinetypeTableRecord
  2
ACAD_ISO06W100
 70
     0
  3
ISO long-dash triple-dot ____ ... ____ ... ____
 72
    65
 73
     8
 40
36.0
 49
24.0
 74
     0
 49
-3.0
 74
     0
 49
0.0
 74
     0
 49
-3.0
 74
     0
 49
0.0
 74
     0
 49
-3.0
 74
     0
 49
0.0
 74
     0
 49
-3.0
 74
     0
  0
LTYPE
  5
56
330
5
100
AcDbSymbolTableRecord
100
AcDbLinetypeTableRecord
  2
ACAD_ISO07W100
 70
     0
  3
ISO dot . . . . . . . . . . . . . . . . . . . .
 72
    65
 73
     2
 40
3.0
 49
0.0
 74
     0
 49
-3.0
 74
     0
  0
LTYPE
  5
57
330
5
100
AcDbSymbolTableRecord
100
AcDbLinetypeTableRecord
  2
ACAD_ISO08W100
 70
     0
  3
ISO long-dash short-dash ____ __ ____ __ ____ _
 72
    65
 73
     4
 40
36.0
 49
24.0
 74
     0
 49
-3.0
 74
     0
 49
6.0
 74
     0
 49
-3.0
 74
     0
  0
LTYPE
  5
58
330
5
100
AcDbSymbolTableRecord
100
AcDbLinetypeTableRecord
  2
ACAD_ISO09W100
 70
     0
  3
ISO long-dash double-short-dash ____ __ __ ____
 72
    65
 73
     6
 40
45.0
 49
24.0
 74
     0
 49
-3.0
 74
     0
 49
6.0
 74
     0
 49
-3.0
 74
     0
 49
6.0
 74
     0
 49
-3.0
 74
     0
  0
LTYPE
  5
59
330
5
100
AcDbSymbolTableRecord
100
AcDbLinetypeTableRecord
  2
ACAD_ISO10W100
 70
     0
  3
ISO dash dot __ . __ . __ . __ . __ . __ . __ .
 72
    65
 73
     4
 40
18.0
 49
12.0
 74
     0
 49
-3.0
 74
     0
 49
0.0
 74
     0
 49
-3.0
 74
     0
  0
LTYPE
  5
5A
330
5
100
AcDbSymbolTableRecord
100
AcDbLinetypeTableRecord
  2
ACAD_ISO11W100
 70
     0
  3
ISO double-dash dot __ __ . __ __ . __ __ . __ 
 72
    65
 73
     6
 40
33.0
 49
12.0
 74
     0
 49
-3.0
 74
     0
 49
12.0
 74
     0
 49
-3.0
 74
     0
 49
0.0
 74
     0
 49
-3.0
 74
     0
  0
LTYPE
  5
5B
330
5
100
AcDbSymbolTableRecord
100
AcDbLinetypeTableRecord
  2
ACAD_ISO12W100
 70
     0
  3
ISO dash double-dot __ . . __ . . __ . . __ . .
 72
    65
 73
     6
 40
21.0
 49
12.0
 74
     0
 49
-3.0
 74
     0
 49
0.0
 74
     0
 49
-3.0
 74
     0
 49
0.0
 74
     0
 49
-3.0
 74
     0
  0
LTYPE
  5
5C
330
5
100
AcDbSymbolTableRecord
100
AcDbLinetypeTableRecord
  2
ACAD_ISO13W100
 70
     0
  3
ISO double-dash double-dot __ __ . . __ __ . . 
 72
    65
 73
     8
 40
36.0
 49
12.0
 74
     0
 49
-3.0
 74
     0
 49
12.0
 74
     0
 49
-3.0
 74
     0
 49
0.0
 74
     0
 49
-3.0
 74
     0
 49
0.0
 74
     0
 49
-3.0
 74
     0
  0
LTYPE
  5
5D
330
5
100
AcDbSymbolTableRecord
100
AcDbLinetypeTableRecord
  2
ACAD_ISO14W100
 70
     0
  3
ISO dash triple-dot __ . . . __ . . . __ . . . 
 72
    65
 73
     8
 40
24.0
 49
12.0
 74
     0
 49
-3.0
 74
     0
 49
0.0
 74
     0
 49
-3.0
 74
     0
 49
0.0
 74
     0
 49
-3.0
 74
     0
 49
0.0
 74
     0
 49
-3.0
 74
     0
  0
LTYPE
  5
5E
330
5
100
AcDbSymbolTableRecord
100
AcDbLinetypeTableRecord
  2
ACAD_ISO15W100
 70
     0
  3
ISO double-dash triple-dot __ __ . . . __ __ . 
 72
    65
 73
    10
 40
39.0
 49
12.0
 74
     0
 49
-3.0
 74
     0
 49
12.0
 74
     0
 49
-3.0
 74
     0
 49
0.0
 74
     0
 49
-3.0
 74
     0
 49
0.0
 74
     0
 49
-3.0
 74
     0
 49
0.0
 74
     0
 49
-3.0
 74
     0
  0
LTYPE
  5
61
330
5
100
AcDbSymbolTableRecord
100
AcDbLinetypeTableRecord
  2
FENCELINE1
 70
     0
  3
Fenceline circle ----0-----0----0-----0----0---
 72
    65
 73
     4
 40
36.83
 49
6.349999999999999
 74
     0
 49
-2.54
 74
     4
 75
   133
340
60
 46
2.54
 50
0.0
 44
-2.54
 45
0.0
 49
-2.54
 74
     0
 49
25.4
 74
     0
  0
LTYPE
  5
62
330
5
100
AcDbSymbolTableRecord
100
AcDbLinetypeTableRecord
  2
FENCELINE2
 70
     0
  3
Fenceline square ----[]-----[]----[]-----[]----
 72
    65
 73
     4
 40
36.83
 49
6.349999999999999
 74
     0
 49
-2.54
 74
     4
 75
   132
340
60
 46
2.54
 50
0.0
 44
-2.54
 45
0.0
 49
-2.54
 74
     0
 49
25.4
 74
     0
  0
LTYPE
  5
63
330
5
100
AcDbSymbolTableRecord
100
AcDbLinetypeTableRecord
  2
TRACKS
 70
     0
  3
Tracks -|-|-|-|-|-|-|-|-|-|-|-|-|-|-|-|-|-|-|-|
 72
    65
 73
     2
 40
7.62
 49
3.81
 74
     4
 75
   130
340
60
 46
6.349999999999999
 50
0.0
 44
0.0
 45
0.0
 49
3.81
 74
     0
  0
LTYPE
  5
64
330
5
100
AcDbSymbolTableRecord
100
AcDbLinetypeTableRecord
  2
BATTING
 70
     0
  3
Batting SSSSSSSSSSSSSSSSSSSSSSSSSSSSSSSSSSSSSSS
 72
    65
 73
     4
 40
10.16254
 49
0.00254
 74
     0
 49
-2.54
 74
     4
 75
   134
340
60
 46
2.54
 50
0.0
 44
-2.54
 45
0.0
 49
-5.08
 74
     4
 75
   134
340
60
 46
2.54
 50
180.0
 44
2.54
 45
0.0
 49
-2.54
 74
     0
  0
LTYPE
  5
65
330
5
100
AcDbSymbolTableRecord
100
AcDbLinetypeTableRecord
  2
HOT_WATER_SUPPLY
 70
     0
  3
Hot water supply ---- HW ---- HW ---- HW ----
 72
    65
 73
     3
 40
22.86
 49
12.7
 74
     0
 49
-5.08
 74
     2
 75
     0
340
11
 46
2.54
 50
0.0
 44
-2.54
 45
-1.27
  9
HW
 49
-5.08
 74
     0
  0
LTYPE
  5
66
330
5
100
AcDbSymbolTableRecord
100
AcDbLinetypeTableRecord
  2
GAS_LINE
 70
     0
  3
Gas line ----GAS----GAS----GAS----GAS----GAS---
 72
    65
 73
     3
 40
24.13
 49
12.7
 74
     0
 49
-5.08
 74
     2
 75
     0
340
11
 46
2.54
 50
0.0
 44
-2.54
 45
-1.27
  9
GAS
 49
-6.349999999999999
 74
     0
  0
LTYPE
  5
67
330
5
100
AcDbSymbolTableRecord
100
AcDbLinetypeTableRecord
  2
ZIGZAG
 70
     0
  3
Zig zag /\/\/\/\/\/\/\/\/\/\/\/\/\/\/\/\/\/\/\/
 72
    65
 73
     4
 40
20.32254
 49
0.00254
 74
     0
 49
-5.08
 74
     4
 75
   131
340
60
 46
5.08
 50
0.0
 44
-5.08
 45
0.0
 49
-10.16
 74
     4
 75
   131
340
60
 46
5.08
 50
180.0
 44
5.08
 45
0.0
 49
-5.08
 74
     0
  0
LTYPE
  5
1FE
330
5
100
AcDbSymbolTableRecord
100
AcDbLinetypeTableRecord
  2
AM_ISO02W050
 70
     0
  3
__ __ __ __ __ __ __ __ __ __ __ __ __ __ __
 72
    65
 73
     2
 40
7.5
 49
6.0
 74
     0
 49
-1.5
 74
     0
  0
LTYPE
  5
1FF
330
5
100
AcDbSymbolTableRecord
100
AcDbLinetypeTableRecord
  2
AM_ISO08W050
 70
     0
  3
____ . ____ . ____ . ____ . ____ . ____ . ____
 72
    65
 73
     4
 40
18.0
 49
12.0
 74
     0
 49
-1.5
 74
     0
 49
3.0
 74
     0
 49
-1.5
 74
     0
  0
LTYPE
  5
200
330
5
100
AcDbSymbolTableRecord
100
AcDbLinetypeTableRecord
  2
AM_ISO09W050
 70
     0
  3
_____ . . _____ . . _____ . . ____ .. ____
 72
    65
 73
     6
 40
22.5
 49
12.0
 74
     0
 49
-1.5
 74
     0
 49
3.0
 74
     0
 49
-1.5
 74
     0
 49
3.0
 74
     0
 49
-1.5
 74
     0
  0
LTYPE
  5
201
330
5
100
AcDbSymbolTableRecord
100
AcDbLinetypeTableRecord
  2
Amconstr
 70
     0
  3
_______________________
 72
    65
 73
     2
 40
9999.0
 49
9999.0
 74
     0
 49
0.0
 74
     0
  0
LTYPE
  5
202
330
5
100
AcDbSymbolTableRecord
100
AcDbLinetypeTableRecord
  2
AM_ISO08W050x2
 70
     0
  3
__ . __ . __ . __ . __ . __
 72
    65
 73
     4
 40
9.0
 49
6.0
 74
     0
 49
-0.75
 74
     0
 49
1.5
 74
     0
 49
-0.75
 74
     0
  0
LTYPE
  5
203
330
5
100
AcDbSymbolTableRecord
100
AcDbLinetypeTableRecord
  2
AM_ISO02W050x2
 70
     0
  3
 _ _ _ _ _ _ _ _ _ _ _ _
 72
    65
 73
     2
 40
3.75
 49
3.0
 74
     0
 49
-0.75
 74
     0
  0
LTYPE
  5
206
330
5
100
AcDbSymbolTableRecord
100
AcDbLinetypeTableRecord
  2
Amzigzag
 70
     0
  3
/\/-/\/-/\/-/\/-/\/-/\/
 72
    65
 73
     2
 40
11.0001
 49
0.0001
 74
     4
 75
   136
340
205
 46
0.04
 50
0.0
 44
0.0
 45
0.0
 49
-11.0
 74
     0
  0
LTYPE
  5
207
330
5
100
AcDbSymbolTableRecord
100
AcDbLinetypeTableRecord
  2
AM_DIN_F_W050
 70
     0
  3
__ __ __ __ __ __ __ __ __ __ __ __ __ __ __
 72
    65
 73
     2
 40
6.25
 49
4.75
 74
     0
 49
-1.5
 74
     0
  0
LTYPE
  5
208
330
5
100
AcDbSymbolTableRecord
100
AcDbLinetypeTableRecord
  2
AM_DIN_G_W050
 70
     0
  3
____ . ____ . ____ . ____ . ____ . ____ . ____
 72
    65
 73
     4
 40
13.75
 49
9.75
 74
     0
 49
-1.5
 74
     0
 49
1.0
 74
     0
 49
-1.5
 74
     0
  0
LTYPE
  5
209
330
5
100
AcDbSymbolTableRecord
100
AcDbLinetypeTableRecord
  2
AM_DIN_K_W050
 70
     0
  3
_____ . . _____ . . _____ . . ____ .. ____
 72
    65
 73
     6
 40
16.25
 49
9.75
 74
     0
 49
-1.5
 74
     0
 49
1.0
 74
     0
 49
-1.5
 74
     0
 49
1.0
 74
     0
 49
-1.5
 74
     0
  0
LTYPE
  5
20A
330
5
100
AcDbSymbolTableRecord
100
AcDbLinetypeTableRecord
  2
AM_DIN_G_W050x2
 70
     0
  3
__ . __ . __ . __ . __ . __
 72
    65
 73
     4
 40
6.875
 49
4.75
 74
     0
 49
-0.875
 74
     0
 49
0.375
 74
     0
 49
-0.875
 74
     0
  0
LTYPE
  5
20B
330
5
100
AcDbSymbolTableRecord
100
AcDbLinetypeTableRecord
  2
AM_DIN_F_W050x2
 70
     0
  3
 _ _ _ _ _ _ _ _ _ _ _ _
 72
    65
 73
     2
 40
3.125
 49
2.25
 74
     0
 49
-0.875
 74
     0
  0
LTYPE
  5
21A
330
5
100
AcDbSymbolTableRecord
100
AcDbLinetypeTableRecord
  2
ACDINWELD
 70
     0
  3
_ _ _ _ _
 72
    65
 73
     2
 40
2.0
 49
2.0
 74
     0
 49
-1.0
 74
     0
  0
LTYPE
  5
21B
330
5
100
AcDbSymbolTableRecord
100
AcDbLinetypeTableRecord
  2
ACDINTGB
 70
     0
  3
__ . . __ . .
 72
    65
 73
     6
 40
9.0
 49
4.0
 74
     0
 49
-1.0
 74
     0
 49
1.0
 74
     0
 49
-1.0
 74
     0
 49
1.0
 74
     0
 49
-1.0
 74
     0
  0
LTYPE
  5
21C
330
5
100
AcDbSymbolTableRecord
100
AcDbLinetypeTableRecord
  2
ACDINTGL
 70
     0
  3
_ _ _ _ _
 72
    65
 73
     2
 40
3.0
 49
2.0
 74
     0
 49
-1.0
 74
     0
  0
ENDTAB
  0
TABLE
  2
LAYER
  5
2
330
0
100
AcDbSymbolTable
 70
     7
  0
LAYER
  5
10
330
2
100
AcDbSymbolTableRecord
100
AcDbLayerTableRecord
  2
0
 70
     0
 62
     7
  6
Continuous
370
    -3
390
F
  0
LAYER
  5
74
330
2
100
AcDbSymbolTableRecord
100
AcDbLayerTableRecord
  2
Rahmen (ISO)
 70
     0
 62
     7
  6
Continuous
370
    70
390
F
  0
LAYER
  5
78
330
2
100
AcDbSymbolTableRecord
100
AcDbLayerTableRecord
  2
Sichtbar (ISO)
 70
     0
 62
     7
  6
Continuous
370
    50
390
F
  0
LAYER
  5
7C
330
2
100
AcDbSymbolTableRecord
100
AcDbLayerTableRecord
  2
Titel (ISO)
 70
     0
 62
     7
  6
Continuous
370
    50
390
F
  0
LAYER
  5
25D
330
2
100
AcDbSymbolTableRecord
100
AcDbLayerTableRecord
  2
AM_5
 70
     0
 62
     3
  6
Continuous
370
    25
390
F
1001
AcAecLayerStandard
1000

1000

  0
LAYER
  5
260
330
2
100
AcDbSymbolTableRecord
100
AcDbLayerTableRecord
  2
AM_12
 70
     0
 62
     7
  6
Continuous
290
     0
370
    50
390
F
1001
AcAecLayerStandard
1000

1000

  0
LAYER
  5
261
330
2
100
AcDbSymbolTableRecord
100
AcDbLayerTableRecord
  2
AM_PAREF
 70
     0
 62
     4
  6
Continuous
290
     0
370
    25
390
F
1001
AcAecLayerStandard
1000

1000

  0
ENDTAB
  0
TABLE
  2
STYLE
  5
3
330
0
100
AcDbSymbolTable
 70
    14
  0
STYLE
  5
11
330
3
100
AcDbSymbolTableRecord
100
AcDbTextStyleTableRecord
  2
Standard
 70
     0
 40
0.0
 41
1.0
 50
0.0
 71
     0
 42
0.2
  3
isocpeur.ttf
  4

1001
ACAD
1000
ISOCPEUR
1071
      256
  0
STYLE
  5
60
330
3
100
AcDbSymbolTableRecord
100
AcDbTextStyleTableRecord
  2

 70
     1
 40
0.0
 41
1.0
 50
0.0
 71
     0
 42
0.2
  3
ltypeshp.shx
  4

  0
STYLE
  5
80
330
3
100
AcDbSymbolTableRecord
100
AcDbTextStyleTableRecord
  2
Bezeichnungstext (ANSI)
 70
     0
 40
0.0
 41
1.0
 50
0.0
 71
     0
 42
0.2
  3
TAHOMA.TTF
  4

1001
ACAD
1000
Tahoma
1071
      256
  0
STYLE
  5
81
330
3
100
AcDbSymbolTableRecord
100
AcDbTextStyleTableRecord
  2
Bezeichnungstext (DIN)
 70
     0
 40
0.0
 41
1.0
 50
0.0
 71
     0
 42
0.2
  3
isocpeur.ttf
  4

1001
ACAD
1000
ISOCPEUR
1071
      256
  0
STYLE
  5
82
330
3
100
AcDbSymbolTableRecord
100
AcDbTextStyleTableRecord
  2
Bezeichnungstext (ISO)
 70
     0
 40
0.0
 41
1.0
 50
0.0
 71
     0
 42
0.2
  3
TAHOMA.TTF
  4

1001
ACAD
1000
Tahoma
1071
      256
  0
STYLE
  5
83
330
3
100
AcDbSymbolTableRecord
100
AcDbTextStyleTableRecord
  2
Bezeichnungstext (JIS)
 70
     0
 40
0.0
 41
1.0
 50
0.0
 71
     0
 42
0.2
  3
TAHOMA.TTF
  4

1001
ACAD
1000
Tahoma
1071
      256
  0
STYLE
  5
84
330
3
100
AcDbSymbolTableRecord
100
AcDbTextStyleTableRecord
  2
Notiztext (ANSI)
 70
     0
 40
0.0
 41
1.0
 50
0.0
 71
     0
 42
0.2
  3
TAHOMA.TTF
  4

1001
ACAD
1000
Tahoma
1071
      256
  0
STYLE
  5
85
330
3
100
AcDbSymbolTableRecord
100
AcDbTextStyleTableRecord
  2
Notiztext (DIN)
 70
     0
 40
0.0
 41
1.0
 50
0.0
 71
     0
 42
0.2
  3
isocpeur.ttf
  4

1001
ACAD
1000
ISOCPEUR
1071
      256
  0
STYLE
  5
86
330
3
100
AcDbSymbolTableRecord
100
AcDbTextStyleTableRecord
  2
Notiztext (ISO)
 70
     0
 40
0.0
 41
1.0
 50
0.0
 71
     0
 42
0.2
  3
TAHOMA.TTF
  4

1001
ACAD
1000
Tahoma
1071
      256
  0
STYLE
  5
87
330
3
100
AcDbSymbolTableRecord
100
AcDbTextStyleTableRecord
  2
Notiztext (JIS)
 70
     0
 40
0.0
 41
1.0
 50
0.0
 71
     0
 42
0.2
  3
TAHOMA.TTF
  4

1001
ACAD
1000
Tahoma
1071
      256
  0
STYLE
  5
E3
330
3
100
AcDbSymbolTableRecord
100
AcDbTextStyleTableRecord
  2
Textstil7
 70
     0
 40
0.0
 41
1.0
 50
0.0
 71
     0
 42
0.2
  3
isocpeur.ttf
  4

1001
ACAD
1000
ISOCPEUR
1071
      256
  0
STYLE
  5
205
330
3
100
AcDbSymbolTableRecord
100
AcDbTextStyleTableRecord
  2

 70
     1
 40
0.0
 41
1.0
 50
0.0
 71
     0
 42
0.2
  3
genltshp.shx
  4

  0
STYLE
  5
20C
330
3
100
AcDbSymbolTableRecord
100
AcDbTextStyleTableRecord
  2
ACDINTS
 70
     0
 40
1.0
 41
1.0
 50
0.0
 71
     0
 42
0.2
  3
isocp.shx
  4

  0
STYLE
  5
219
330
3
100
AcDbSymbolTableRecord
100
AcDbTextStyleTableRecord
  2
ACDINGDT
 70
     0
 40
0.0
 41
1.0
 50
0.0
 71
     0
 42
0.2
  3
AMGDT
  4

  0
ENDTAB
  0
TABLE
  2
VIEW
  5
6
330
0
100
AcDbSymbolTable
 70
     0
  0
ENDTAB
  0
TABLE
  2
UCS
  5
7
330
0
100
AcDbSymbolTable
 70
     0
  0
ENDTAB
  0
TABLE
  2
APPID
  5
9
330
0
100
AcDbSymbolTable
 70
    14
  0
APPID
  5
12
330
9
100
AcDbSymbolTableRecord
100
AcDbRegAppTableRecord
  2
ACAD
 70
     0
  0
APPID
  5
14F
330
9
100
AcDbSymbolTableRecord
100
AcDbRegAppTableRecord
  2
INVENTOR_2DTRANSLATOR_APPLICATION
 70
     0
  0
APPID
  5
19B
330
9
100
AcDbSymbolTableRecord
100
AcDbRegAppTableRecord
  2
MCAD_NO_VIS
 70
     0
  0
APPID
  5
19C
330
9
100
AcDbSymbolTableRecord
100
AcDbRegAppTableRecord
  2
ACAD_TEMP_GRAPHIC
 70
     0
  0
APPID
  5
1CB
330
9
100
AcDbSymbolTableRecord
100
AcDbRegAppTableRecord
  2
AD_DRAW
 70
     0
  0
APPID
  5
1CE
330
9
100
AcDbSymbolTableRecord
100
AcDbRegAppTableRecord
  2
ACATTRIBSERVICES
 70
     0
  0
APPID
  5
1EE
330
9
100
AcDbSymbolTableRecord
100
AcDbRegAppTableRecord
  2
DESIGNERASSEMBLIES
 70
     0
  0
APPID
  5
1F4
330
9
100
AcDbSymbolTableRecord
100
AcDbRegAppTableRecord
  2
ACADM_DIM_EDIT
 70
     0
  0
APPID
  5
1F5
330
9
100
AcDbSymbolTableRecord
100
AcDbRegAppTableRecord
  2
AMDT_DM_ADJ
 70
     0
  0
APPID
  5
228
330
9
100
AcDbSymbolTableRecord
100
AcDbRegAppTableRecord
  2
ACAD_DSTYLE_DIMARC_LENGTH_SYMBOL
 70
     0
  0
APPID
  5
229
330
9
100
AcDbSymbolTableRecord
100
AcDbRegAppTableRecord
  2
ACAD_DSTYLE_DIMJOGGED_JOGANGLE_SYMBOL
 70
     0
  0
APPID
  5
25E
330
9
100
AcDbSymbolTableRecord
100
AcDbRegAppTableRecord
  2
AcAecLayerStandard
 70
     0
  0
APPID
  5
34D
330
9
100
AcDbSymbolTableRecord
100
AcDbRegAppTableRecord
  2
AcDbDynamicBlockTrueName
 70
     0
  0
APPID
  5
34E
330
9
100
AcDbSymbolTableRecord
100
AcDbRegAppTableRecord
  2
AcDbBlockRepETag
 70
     0
  0
ENDTAB
  0
TABLE
  2
DIMSTYLE
  5
A
330
0
100
AcDbSymbolTable
 70
    18
100
AcDbDimStyleTable
 71
     0
  0
DIMSTYLE
105
2B
330
A
100
AcDbSymbolTableRecord
100
AcDbDimStyleTableRecord
  2
Standard
 70
     0
340
11
  0
DIMSTYLE
105
96
330
A
100
AcDbSymbolTableRecord
100
AcDbDimStyleTableRecord
  2
Sonstiges Objekt (DIN)
 70
     0
 41
5.0
 42
0.0
 43
6.0
 44
3.174999999999999
 45
0.00000001
 46
10.0
 77
     1
 78
     8
 79
     2
140
5.25
143
0.03937
146
0.6666666666666666
147
0.8
171
     3
176
   256
177
   256
178
   256
271
     2
272
     2
274
     3
278
    44
284
     8
286
     8
340
81
341
88
371
    -1
372
    -1
  0
DIMSTYLE
105
97
330
A
100
AcDbSymbolTableRecord
100
AcDbDimStyleTableRecord
  2
Sonstiges Objekt (DIN)$7
 70
     0
 41
5.0
 42
0.0
 43
6.0
 44
3.174999999999999
 45
0.00000001
 46
10.0
 77
     1
 78
     8
 79
     2
140
5.25
143
0.03937
146
0.6666666666666666
147
0.8
171
     3
176
   256
177
   256
178
   256
271
     2
272
     2
274
     3
278
    44
284
     8
286
     8
340
81
341
88
371
    25
372
    -1
  0
DIMSTYLE
105
98
330
A
100
AcDbSymbolTableRecord
100
AcDbDimStyleTableRecord
  2
Standard - Methode 2a (DIN)
 70
     0
 41
2.5
 42
0.8
 43
6.0
 44
3.174999999999999
 45
0.00000001
 46
10.0
 77
     1
 78
     8
 79
     2
140
3.5
143
0.03937
147
0.8
170
     1
171
     3
176
   256
177
   256
178
   256
179
     2
271
     2
272
     2
274
     3
278
    44
284
     8
286
     8
340
85
371
    -1
372
    -1
  0
DIMSTYLE
105
99
330
A
100
AcDbSymbolTableRecord
100
AcDbDimStyleTableRecord
  2
Standard - Methode 2a (DIN)$7
 70
     0
 41
2.5
 42
0.8
 43
6.0
 44
3.174999999999999
 45
0.00000001
 46
10.0
 77
     1
 78
     8
 79
     2
140
3.5
143
0.03937
147
0.8
170
     1
171
     3
176
   256
177
   256
178
   256
179
     2
271
     2
272
     2
274
     3
278
    44
284
     8
286
     8
340
85
371
    -1
372
    -1
  0
DIMSTYLE
105
9A
330
A
100
AcDbSymbolTableRecord
100
AcDbDimStyleTableRecord
  2
Standard - Methode 2b (DIN)
 70
     0
 41
2.5
 42
0.0
 43
6.0
 44
3.174999999999999
 45
0.00000001
 46
10.0
 77
     1
 78
     8
 79
     2
140
3.5
143
0.03937
147
0.8
171
     3
176
   256
177
   256
178
   256
271
     2
272
     2
274
     3
278
    44
284
     8
286
     8
340
85
371
    -1
372
    -1
  0
DIMSTYLE
105
9B
330
A
100
AcDbSymbolTableRecord
100
AcDbDimStyleTableRecord
  2
Standard - Methode 2b (DIN)$7
 70
     0
 41
2.5
 42
0.0
 43
6.0
 44
3.174999999999999
 45
0.00000001
 46
10.0
 77
     1
 78
     8
 79
     2
140
3.5
143
0.03937
147
0.8
171
     3
176
   256
177
   256
178
   256
271
     2
272
     2
274
     3
278
    44
284
     8
286
     8
340
85
371
    -1
372
    -1
  0
DIMSTYLE
105
9C
330
A
100
AcDbSymbolTableRecord
100
AcDbDimStyleTableRecord
  2
Standard (DIN)
 70
     0
 41
2.5
 42
0.8
 43
6.0
 44
3.174999999999999
 45
0.00000001
 46
10.0
 73
     0
 74
     0
 77
     1
140
3.5
143
0.03937
147
0.8
171
     3
176
   256
177
   256
178
   256
271
     2
272
     2
274
     3
278
    44
340
85
371
    -1
372
    -1
  0
DIMSTYLE
105
9D
330
A
100
AcDbSymbolTableRecord
100
AcDbDimStyleTableRecord
  2
Standard (DIN)$7
 70
     0
 41
2.5
 42
0.8
 43
6.0
 44
3.174999999999999
 45
0.00000001
 46
10.0
 73
     0
 74
     0
 77
     1
140
3.5
143
0.03937
147
0.8
171
     3
176
   256
177
   256
178
   256
271
     2
272
     2
274
     3
278
    44
340
85
371
    -1
372
    -1
  0
DIMSTYLE
105
9E
330
A
100
AcDbSymbolTableRecord
100
AcDbDimStyleTableRecord
  2
Alternativ (ISO)
 70
     0
 41
2.5
340
11
342
9F
  0
DIMSTYLE
105
B0
330
A
100
AcDbSymbolTableRecord
100
AcDbDimStyleTableRecord
  2
Bezug (ISO)
 70
     0
 41
2.5
340
11
342
9F
  0
DIMSTYLE
105
227
330
A
100
AcDbSymbolTableRecord
100
AcDbDimStyleTableRecord
  2
AM_DIN
 70
     0
  4
"
 41
2.5
 42
1.0
 43
10.0
 44
1.0
 47
0.1
 48
0.1
 73
     0
 74
     0
 77
     1
 78
     8
 79
     2
140
3.5
141
0.0
143
0.0393701
146
0.71
147
1.5
172
     1
176
   256
177
   256
178
     2
271
     2
272
     3
274
     4
283
     0
284
     8
340
11
371
    -1
372
    -1
1001
ACAD_DSTYLE_DIMARC_LENGTH_SYMBOL
1070
   379
1070
     0
1001
ACAD_DSTYLE_DIMJOGGED_JOGANGLE_SYMBOL
1070
   384
1040
1.570796326794896
  0
DIMSTYLE
105
238
330
A
100
AcDbSymbolTableRecord
100
AcDbDimStyleTableRecord
  2
AM_DIN$3
 70
     0
  4
"
 41
2.5
 42
1.0
 43
10.0
 44
1.0
 47
0.1
 48
0.1
 73
     0
 77
     1
 78
     8
 79
     2
140
3.5
141
0.0
143
0.0393701
146
0.71
147
1.5
176
   256
177
   256
178
     2
271
     2
272
     3
274
     4
283
     0
284
     8
288
     1
289
     0
340
11
371
    -1
372
    -1
1001
ACAD_DSTYLE_DIMARC_LENGTH_SYMBOL
1070
   379
1070
     0
1001
ACAD_DSTYLE_DIMJOGGED_JOGANGLE_SYMBOL
1070
   384
1040
1.570796326794896
  0
DIMSTYLE
105
23D
330
A
100
AcDbSymbolTableRecord
100
AcDbDimStyleTableRecord
  2
AM_DIN$4
 70
     0
  4
"
 41
2.5
 42
1.0
 43
10.0
 44
1.0
 47
0.1
 48
0.1
 73
     0
 77
     1
 78
     8
 79
     2
140
3.5
141
0.0
143
0.0393701
146
0.71
147
1.5
176
   256
177
   256
178
     2
271
     2
272
     3
274
     4
283
     0
284
     8
288
     1
289
     0
340
11
371
    -1
372
    -1
1001
ACAD_DSTYLE_DIMARC_LENGTH_SYMBOL
1070
   379
1070
     0
1001
ACAD_DSTYLE_DIMJOGGED_JOGANGLE_SYMBOL
1070
   384
1040
1.570796326794896
  0
DIMSTYLE
105
242
330
A
100
AcDbSymbolTableRecord
100
AcDbDimStyleTableRecord
  2
AM_DIN$6
 70
     0
  4
"
 41
2.5
 42
1.0
 43
10.0
 44
1.0
 47
0.1
 48
0.1
 73
     0
 74
     0
 78
     8
 79
     2
140
3.5
141
0.0
143
0.0393701
146
0.71
147
1.5
172
     1
176
   256
177
   256
178
     2
271
     2
272
     3
274
     4
283
     0
284
     8
340
11
371
    -1
372
    -1
1001
ACAD_DSTYLE_DIMARC_LENGTH_SYMBOL
1070
   379
1070
     0
1001
ACAD_DSTYLE_DIMJOGGED_JOGANGLE_SYMBOL
1070
   384
1040
1.570796326794896
  0
DIMSTYLE
105
247
330
A
100
AcDbSymbolTableRecord
100
AcDbDimStyleTableRecord
  2
AM_DIN$7
 70
     0
  4
"
 41
2.5
 42
1.0
 43
10.0
 44
1.0
 47
0.1
 48
0.1
 73
     0
 74
     0
 77
     1
 78
     8
 79
     2
140
5.0
141
0.0
143
0.0393701
146
0.71
147
1.5
172
     1
176
   256
177
   256
178
     2
271
     2
272
     3
274
     4
283
     0
284
     8
340
11
371
    -1
372
    -1
1001
ACAD_DSTYLE_DIMARC_LENGTH_SYMBOL
1070
   379
1070
     0
1001
ACAD_DSTYLE_DIMJOGGED_JOGANGLE_SYMBOL
1070
   384
1040
1.570796326794896
  0
DIMSTYLE
105
24C
330
A
100
AcDbSymbolTableRecord
100
AcDbDimStyleTableRecord
  2
AM_DIN$SF
 70
     0
  4
"
 41
2.5
 42
1.0
 43
10.0
 44
1.0
 47
0.1
 48
0.1
 73
     0
 74
     0
 75
     1
 76
     1
 77
     1
 78
     8
 79
     2
140
3.5
141
0.0
143
0.0393701
146
0.71
147
1.5
172
     1
176
   256
177
   256
178
     2
271
     2
272
     3
274
     4
283
     0
284
     8
340
11
371
    -1
372
    -1
1001
ACAD_DSTYLE_DIMARC_LENGTH_SYMBOL
1070
   379
1070
     0
1001
ACAD_DSTYLE_DIMJOGGED_JOGANGLE_SYMBOL
1070
   384
1040
1.570796326794896
  0
DIMSTYLE
105
255
330
A
100
AcDbSymbolTableRecord
100
AcDbDimStyleTableRecord
  2
AM_DIN$SH
 70
     0
  4
"
 41
2.5
 42
1.0
 43
10.0
 44
1.0
 47
0.1
 48
0.1
 73
     0
 74
     0
 75
     1
 76
     1
 77
     1
 78
     8
 79
     2
140
3.5
141
0.0
143
0.0393701
144
2.0
146
0.71
147
1.5
172
     1
173
     1
176
   256
177
   256
178
     2
271
     2
272
     3
274
     4
283
     0
284
     8
340
11
343
24D
371
    -1
372
    -1
1001
ACAD_DSTYLE_DIMARC_LENGTH_SYMBOL
1070
   379
1070
     0
1001
ACAD_DSTYLE_DIMJOGGED_JOGANGLE_SYMBOL
1070
   384
1040
1.570796326794896
  0
ENDTAB
  0
TABLE
  2
BLOCK_RECORD
  5
1
330
0
100
AcDbSymbolTable
 70
    10
  0
BLOCK_RECORD
  5
23
102
{ACAD_XDICTIONARY
360
34A
102
}
330
1
100
AcDbSymbolTableRecord
100
AcDbBlockTableRecord
  2
*Model_Space
340
26
1001
AcDbBlockRepETag
1070
     1
1071
       62
  0
BLOCK_RECORD
  5
1F
330
1
100
AcDbSymbolTableRecord
100
AcDbBlockTableRecord
  2
*Paper_Space
340
22
  0
BLOCK_RECORD
  5
27
330
1
100
AcDbSymbolTableRecord
100
AcDbBlockTableRecord
  2
*Paper_Space0
340
2A
  0
BLOCK_RECORD
  5
88
330
1
100
AcDbSymbolTableRecord
100
AcDbBlockTableRecord
  2
Filled-1
340
0
  0
BLOCK_RECORD
  5
9F
330
1
100
AcDbSymbolTableRecord
100
AcDbBlockTableRecord
  2
_Closed
340
0
  0
BLOCK_RECORD
  5
A6
330
1
100
AcDbSymbolTableRecord
100
AcDbBlockTableRecord
  2
DatumFilled45
340
0
  0
BLOCK_RECORD
  5
B1
330
1
100
AcDbSymbolTableRecord
100
AcDbBlockTableRecord
  2
Ränder Default Border
340
0
  0
BLOCK_RECORD
  5
10A
330
1
100
AcDbSymbolTableRecord
100
AcDbBlockTableRecord
  2
Schriftfelder DIN
340
0
  0
BLOCK_RECORD
  5
24D
330
1
100
AcDbSymbolTableRecord
100
AcDbBlockTableRecord
  2
GENAXEH
340
0
  0
BLOCK_RECORD
  5
274
330
1
100
AcDbSymbolTableRecord
100
AcDbBlockTableRecord
  2
*S7
340
0
102
{BLKREFS
331
262
102
}
  0
ENDTAB
  0
ENDSEC
  0
SECTION
  2
BLOCKS
  0
BLOCK
  5
24
330
23
100
AcDbEntity
  8
0
100
AcDbBlockBegin
  2
*Model_Space
 70
     0
 10
0.0
 20
0.0
 30
0.0
  3
*Model_Space
  1

  0
ENDBLK
  5
25
330
23
100
AcDbEntity
  8
0
100
AcDbBlockEnd
  0
BLOCK
  5
20
330
1F
100
AcDbEntity
 67
     1
  8
0
100
AcDbBlockBegin
  2
*Paper_Space
 70
     0
 10
0.0
 20
0.0
 30
0.0
  3
*Paper_Space
  1

  0
ENDBLK
  5
21
330
1F
100
AcDbEntity
 67
     1
  8
0
100
AcDbBlockEnd
  0
BLOCK
  5
28
330
27
100
AcDbEntity
 67
     1
  8
0
100
AcDbBlockBegin
  2
*Paper_Space0
 70
     0
 10
0.0
 20
0.0
 30
0.0
  3
*Paper_Space0
  1

  0
ENDBLK
  5
29
330
27
100
AcDbEntity
 67
     1
  8
0
100
AcDbBlockEnd
  0
BLOCK
  5
89
330
88
100
AcDbEntity
  8
0
100
AcDbBlockBegin
  2
Filled-1
 70
     0
 10
0.0
 20
0.0
 30
0.0
  3
Filled-1
  1

  0
LINE
  5
8B
330
88
100
AcDbEntity
  8
0
 62
     0
100
AcDbLine
 10
-1.0
 20
0.0
 30
0.0
 11
0.0
 21
0.0
 31
0.0
  0
POLYLINE
  5
8C
330
88
100
AcDbEntity
  8
0
 62
     0
100
AcDb2dPolyline
 66
     1
 10
0.0
 20
0.0
 30
0.0
 70
   128
  0
VERTEX
  5
8D
330
8C
100
AcDbEntity
  8
0
 62
     0
100
AcDbVertex
100
AcDb2dVertex
 10
-1.0
 20
-0.1
 30
0.0
  0
VERTEX
  5
8E
330
8C
100
AcDbEntity
  8
0
 62
     0
100
AcDbVertex
100
AcDb2dVertex
 10
0.0
 20
0.0
 30
0.0
  0
VERTEX
  5
90
330
8C
100
AcDbEntity
  8
0
 62
     0
100
AcDbVertex
100
AcDb2dVertex
 10
-1.0
 20
0.1
 30
0.0
  0
VERTEX
  5
91
330
8C
100
AcDbEntity
  8
0
 62
     0
100
AcDbVertex
100
AcDb2dVertex
 10
-1.0
 20
-0.1
 30
0.0
  0
SEQEND
  5
8F
330
8C
100
AcDbEntity
  8
0
 62
     0
  0
SOLID
  5
92
330
88
100
AcDbEntity
  8
0
 62
     0
100
AcDbTrace
 10
-1.0
 20
-0.1
 30
0.0
 11
0.0
 21
0.0
 31
0.0
 12
-1.0
 22
0.1
 32
0.0
 13
-1.0
 23
-0.1
 33
0.0
  0
LINE
  5
93
330
88
100
AcDbEntity
  8
0
 62
     0
100
AcDbLine
 10
-1.0
 20
-0.1
 30
0.0
 11
0.0
 21
0.0
 31
0.0
  0
LINE
  5
94
330
88
100
AcDbEntity
  8
0
 62
     0
100
AcDbLine
 10
0.0
 20
0.0
 30
0.0
 11
-1.0
 21
0.1
 31
0.0
  0
LINE
  5
95
330
88
100
AcDbEntity
  8
0
 62
     0
100
AcDbLine
 10
-1.0
 20
0.1
 30
0.0
 11
-1.0
 21
-0.1
 31
0.0
  0
ENDBLK
  5
8A
330
88
100
AcDbEntity
  8
0
100
AcDbBlockEnd
  0
BLOCK
  5
A4
330
9F
100
AcDbEntity
  8
0
100
AcDbBlockBegin
  2
_Closed
 70
     0
 10
0.0
 20
0.0
 30
0.0
  3
_Closed
  1

  0
LINE
  5
A0
330
9F
100
AcDbEntity
  8
0
  6
ByBlock
 62
     0
370
    -2
100
AcDbLine
 10
-1.0
 20
0.1666666666666666
 30
0.0
 11
0.0
 21
0.0
 31
0.0
  0
LINE
  5
A1
330
9F
100
AcDbEntity
  8
0
  6
ByBlock
 62
     0
370
    -2
100
AcDbLine
 10
0.0
 20
0.0
 30
0.0
 11
-1.0
 21
-0.1666666666666666
 31
0.0
  0
LINE
  5
A2
330
9F
100
AcDbEntity
  8
0
  6
ByBlock
 62
     0
370
    -2
100
AcDbLine
 10
-1.0
 20
0.1666666666666666
 30
0.0
 11
-1.0
 21
-0.1666666666666666
 31
0.0
  0
LINE
  5
A3
330
9F
100
AcDbEntity
  8
0
  6
ByBlock
 62
     0
370
    -2
100
AcDbLine
 10
0.0
 20
0.0
 30
0.0
 11
-1.0
 21
0.0
 31
0.0
  0
ENDBLK
  5
A5
330
9F
100
AcDbEntity
  8
0
100
AcDbBlockEnd
  0
BLOCK
  5
A7
330
A6
100
AcDbEntity
  8
0
100
AcDbBlockBegin
  2
DatumFilled45
 70
     0
 10
0.0
 20
0.0
 30
0.0
  3
DatumFilled45
  1

  0
POLYLINE
  5
A9
330
A6
100
AcDbEntity
  8
0
 62
     0
100
AcDb2dPolyline
 66
     1
 10
0.0
 20
0.0
 30
0.0
 70
   128
  0
VERTEX
  5
AA
330
A9
100
AcDbEntity
  8
0
 62
     0
100
AcDbVertex
100
AcDb2dVertex
 10
0.0
 20
1.0
 30
0.0
  0
VERTEX
  5
AB
330
A9
100
AcDbEntity
  8
0
 62
     0
100
AcDbVertex
100
AcDb2dVertex
 10
0.0
 20
-1.0
 30
0.0
  0
VERTEX
  5
AD
330
A9
100
AcDbEntity
  8
0
 62
     0
100
AcDbVertex
100
AcDb2dVertex
 10
-1.0
 20
0.0
 30
0.0
  0
VERTEX
  5
AE
330
A9
100
AcDbEntity
  8
0
 62
     0
100
AcDbVertex
100
AcDb2dVertex
 10
0.0
 20
1.0
 30
0.0
  0
SEQEND
  5
AC
330
A9
100
AcDbEntity
  8
0
 62
     0
  0
SOLID
  5
AF
330
A6
100
AcDbEntity
  8
0
 62
     0
100
AcDbTrace
 10
0.0
 20
1.0
 30
0.0
 11
0.0
 21
-1.0
 31
0.0
 12
-1.0
 22
0.0
 32
0.0
 13
0.0
 23
1.0
 33
0.0
  0
ENDBLK
  5
A8
330
A6
100
AcDbEntity
  8
0
100
AcDbBlockEnd
  0
BLOCK
  5
B2
330
B1
100
AcDbEntity
  8
0
100
AcDbBlockBegin
  2
Ränder Default Border
 70
     0
 10
0.0
 20
0.0
 30
0.0
  3
Ränder Default Border
  1

  0
POLYLINE
  5
B4
330
B1
100
AcDbEntity
  8
Rahmen (ISO)
100
AcDb2dPolyline
 66
     1
 10
0.0
 20
0.0
 30
0.0
 70
   128
  0
VERTEX
  5
B5
330
B4
100
AcDbEntity
  8
Rahmen (ISO)
100
AcDbVertex
100
AcDb2dVertex
 10
10.0
 20
10.0
 30
0.0
  0
VERTEX
  5
B6
330
B4
100
AcDbEntity
  8
Rahmen (ISO)
100
AcDbVertex
100
AcDb2dVertex
 10
10.0
 20
410.0
 30
0.0
  0
VERTEX
  5
B8
330
B4
100
AcDbEntity
  8
Rahmen (ISO)
100
AcDbVertex
100
AcDb2dVertex
 10
584.000015258789
 20
410.0
 30
0.0
  0
VERTEX
  5
B9
330
B4
100
AcDbEntity
  8
Rahmen (ISO)
100
AcDbVertex
100
AcDb2dVertex
 10
584.000015258789
 20
10.0
 30
0.0
  0
VERTEX
  5
BA
330
B4
100
AcDbEntity
  8
Rahmen (ISO)
100
AcDbVertex
100
AcDb2dVertex
 10
10.0
 20
10.0
 30
0.0
  0
SEQEND
  5
B7
330
B4
100
AcDbEntity
  8
Rahmen (ISO)
  0
POLYLINE
  5
BB
330
B1
100
AcDbEntity
  8
Rahmen (ISO)
100
AcDb2dPolyline
 66
     1
 10
0.0
 20
0.0
 30
0.0
 70
   128
  0
VERTEX
  5
BC
330
BB
100
AcDbEntity
  8
Rahmen (ISO)
100
AcDbVertex
100
AcDb2dVertex
 10
297.0000076293946
 20
0.0
 30
0.0
  0
VERTEX
  5
BD
330
BB
100
AcDbEntity
  8
Rahmen (ISO)
100
AcDbVertex
100
AcDb2dVertex
 10
297.0000076293946
 20
10.0
 30
0.0
  0
VERTEX
  5
BF
330
BB
100
AcDbEntity
  8
Rahmen (ISO)
100
AcDbVertex
100
AcDb2dVertex
 10
294.1132545471191
 20
5.0
 30
0.0
  0
VERTEX
  5
C0
330
BB
100
AcDbEntity
  8
Rahmen (ISO)
100
AcDbVertex
100
AcDb2dVertex
 10
299.8867607116699
 20
5.0
 30
0.0
  0
VERTEX
  5
C1
330
BB
100
AcDbEntity
  8
Rahmen (ISO)
100
AcDbVertex
100
AcDb2dVertex
 10
297.0000076293946
 20
10.0
 30
0.0
  0
SEQEND
  5
BE
330
BB
100
AcDbEntity
  8
Rahmen (ISO)
  0
POLYLINE
  5
C2
330
B1
100
AcDbEntity
  8
Rahmen (ISO)
100
AcDb2dPolyline
 66
     1
 10
0.0
 20
0.0
 30
0.0
 70
   128
  0
VERTEX
  5
C3
330
C2
100
AcDbEntity
  8
Rahmen (ISO)
100
AcDbVertex
100
AcDb2dVertex
 10
297.0000076293946
 20
420.0
 30
0.0
  0
VERTEX
  5
C4
330
C2
100
AcDbEntity
  8
Rahmen (ISO)
100
AcDbVertex
100
AcDb2dVertex
 10
297.0000076293946
 20
410.0
 30
0.0
  0
VERTEX
  5
C6
330
C2
100
AcDbEntity
  8
Rahmen (ISO)
100
AcDbVertex
100
AcDb2dVertex
 10
294.1132545471191
 20
415.0
 30
0.0
  0
VERTEX
  5
C7
330
C2
100
AcDbEntity
  8
Rahmen (ISO)
100
AcDbVertex
100
AcDb2dVertex
 10
299.8867607116699
 20
415.0
 30
0.0
  0
VERTEX
  5
C8
330
C2
100
AcDbEntity
  8
Rahmen (ISO)
100
AcDbVertex
100
AcDb2dVertex
 10
297.0000076293946
 20
410.0
 30
0.0
  0
SEQEND
  5
C5
330
C2
100
AcDbEntity
  8
Rahmen (ISO)
  0
POLYLINE
  5
C9
330
B1
100
AcDbEntity
  8
Rahmen (ISO)
100
AcDb2dPolyline
 66
     1
 10
0.0
 20
0.0
 30
0.0
 70
   128
  0
VERTEX
  5
CA
330
C9
100
AcDbEntity
  8
Rahmen (ISO)
100
AcDbVertex
100
AcDb2dVertex
 10
0.0
 20
210.0
 30
0.0
  0
VERTEX
  5
CB
330
C9
100
AcDbEntity
  8
Rahmen (ISO)
100
AcDbVertex
100
AcDb2dVertex
 10
10.0
 20
210.0
 30
0.0
  0
VERTEX
  5
CD
330
C9
100
AcDbEntity
  8
Rahmen (ISO)
100
AcDbVertex
100
AcDb2dVertex
 10
5.0
 20
212.8867530822754
 30
0.0
  0
VERTEX
  5
CE
330
C9
100
AcDbEntity
  8
Rahmen (ISO)
100
AcDbVertex
100
AcDb2dVertex
 10
5.0
 20
207.1132469177246
 30
0.0
  0
VERTEX
  5
CF
330
C9
100
AcDbEntity
  8
Rahmen (ISO)
100
AcDbVertex
100
AcDb2dVertex
 10
10.0
 20
210.0
 30
0.0
  0
SEQEND
  5
CC
330
C9
100
AcDbEntity
  8
Rahmen (ISO)
  0
POLYLINE
  5
D0
330
B1
100
AcDbEntity
  8
Rahmen (ISO)
100
AcDb2dPolyline
 66
     1
 10
0.0
 20
0.0
 30
0.0
 70
   128
  0
VERTEX
  5
D1
330
D0
100
AcDbEntity
  8
Rahmen (ISO)
100
AcDbVertex
100
AcDb2dVertex
 10
594.0000152587891
 20
210.0
 30
0.0
  0
VERTEX
  5
D2
330
D0
100
AcDbEntity
  8
Rahmen (ISO)
100
AcDbVertex
100
AcDb2dVertex
 10
584.000015258789
 20
210.0
 30
0.0
  0
VERTEX
  5
D4
330
D0
100
AcDbEntity
  8
Rahmen (ISO)
100
AcDbVertex
100
AcDb2dVertex
 10
589.000015258789
 20
212.8867530822754
 30
0.0
  0
VERTEX
  5
D5
330
D0
100
AcDbEntity
  8
Rahmen (ISO)
100
AcDbVertex
100
AcDb2dVertex
 10
589.000015258789
 20
207.1132469177246
 30
0.0
  0
VERTEX
  5
D6
330
D0
100
AcDbEntity
  8
Rahmen (ISO)
100
AcDbVertex
100
AcDb2dVertex
 10
584.000015258789
 20
210.0
 30
0.0
  0
SEQEND
  5
D3
330
D0
100
AcDbEntity
  8
Rahmen (ISO)
  0
LINE
  5
D7
330
B1
100
AcDbEntity
  8
Rahmen (ISO)
100
AcDbLine
 10
74.25000190734863
 20
10.0
 30
0.0
 11
74.25000190734863
 21
6.100000143051147
 31
0.0
  0
LINE
  5
D8
330
B1
100
AcDbEntity
  8
Rahmen (ISO)
100
AcDbLine
 10
74.25000190734863
 20
410.0
 30
0.0
 11
74.25000190734863
 21
413.8999938964843
 31
0.0
  0
LINE
  5
D9
330
B1
100
AcDbEntity
  8
Rahmen (ISO)
100
AcDbLine
 10
148.5000038146973
 20
10.0
 30
0.0
 11
148.5000038146973
 21
6.100000143051147
 31
0.0
  0
LINE
  5
DA
330
B1
100
AcDbEntity
  8
Rahmen (ISO)
100
AcDbLine
 10
148.5000038146973
 20
410.0
 30
0.0
 11
148.5000038146973
 21
413.8999938964843
 31
0.0
  0
LINE
  5
DB
330
B1
100
AcDbEntity
  8
Rahmen (ISO)
100
AcDbLine
 10
222.7499961853027
 20
10.0
 30
0.0
 11
222.7499961853027
 21
6.100000143051147
 31
0.0
  0
LINE
  5
DC
330
B1
100
AcDbEntity
  8
Rahmen (ISO)
100
AcDbLine
 10
222.7499961853027
 20
410.0
 30
0.0
 11
222.7499961853027
 21
413.8999938964843
 31
0.0
  0
LINE
  5
DD
330
B1
100
AcDbEntity
  8
Rahmen (ISO)
100
AcDbLine
 10
371.25
 20
10.0
 30
0.0
 11
371.25
 21
6.100000143051147
 31
0.0
  0
LINE
  5
DE
330
B1
100
AcDbEntity
  8
Rahmen (ISO)
100
AcDbLine
 10
371.25
 20
410.0
 30
0.0
 11
371.25
 21
413.8999938964843
 31
0.0
  0
LINE
  5
DF
330
B1
100
AcDbEntity
  8
Rahmen (ISO)
100
AcDbLine
 10
445.4999923706054
 20
10.0
 30
0.0
 11
445.4999923706054
 21
6.100000143051147
 31
0.0
  0
LINE
  5
E0
330
B1
100
AcDbEntity
  8
Rahmen (ISO)
100
AcDbLine
 10
445.4999923706054
 20
410.0
 30
0.0
 11
445.4999923706054
 21
413.8999938964843
 31
0.0
  0
LINE
  5
E1
330
B1
100
AcDbEntity
  8
Rahmen (ISO)
100
AcDbLine
 10
519.7499847412109
 20
10.0
 30
0.0
 11
519.7499847412109
 21
6.100000143051147
 31
0.0
  0
LINE
  5
E2
330
B1
100
AcDbEntity
  8
Rahmen (ISO)
100
AcDbLine
 10
519.7499847412109
 20
410.0
 30
0.0
 11
519.7499847412109
 21
413.8999938964843
 31
0.0
  0
MTEXT
  5
E4
330
B1
100
AcDbEntity
  8
Rahmen (ISO)
100
AcDbMText
 10
556.5224609524013
 20
410.4
 30
0.0
 40
3.499999940395355
 41
0.0
 71
     7
 72
     1
  1
1
  7
Textstil7
 73
     1
 44
1.0
  0
MTEXT
  5
E6
330
B1
100
AcDbEntity
  8
Rahmen (ISO)
100
AcDbMText
 10
556.5224609524013
 20
6.100000059604644
 30
0.0
 40
3.499999940395355
 41
0.0
 71
     7
 72
     1
  1
1
  7
Textstil7
 73
     1
 44
3.070624828338623
  0
MTEXT
  5
E7
330
B1
100
AcDbEntity
  8
Rahmen (ISO)
100
AcDbMText
 10
481.9283178150653
 20
410.4
 30
0.0
 40
3.499999940395355
 41
0.0
 71
     7
 72
     1
  1
2
  7
Textstil7
 73
     1
 44
1.0
  0
MTEXT
  5
E8
330
B1
100
AcDbEntity
  8
Rahmen (ISO)
100
AcDbMText
 10
481.9283178150653
 20
6.100000059604644
 30
0.0
 40
3.499999940395355
 41
0.0
 71
     7
 72
     1
  1
2
  7
Textstil7
 73
     1
 44
3.070624828338623
  0
MTEXT
  5
E9
330
B1
100
AcDbEntity
  8
Rahmen (ISO)
100
AcDbMText
 10
407.6783178150654
 20
410.4
 30
0.0
 40
3.499999940395355
 41
0.0
 71
     7
 72
     1
  1
3
  7
Textstil7
 73
     1
 44
1.777499914169311
  0
MTEXT
  5
EA
330
B1
100
AcDbEntity
  8
Rahmen (ISO)
100
AcDbMText
 10
407.6783178150654
 20
6.100000059604644
 30
0.0
 40
3.499999940395355
 41
0.0
 71
     7
 72
     1
  1
3
  7
Textstil7
 73
     1
 44
1.0
  0
MTEXT
  5
EB
330
B1
100
AcDbEntity
  8
Rahmen (ISO)
100
AcDbMText
 10
333.2529931366445
 20
410.4
 30
0.0
 40
3.499999940395355
 41
0.0
 71
     7
 72
     1
  1
4
  7
Textstil7
 73
     1
 44
1.0
  0
MTEXT
  5
EC
330
B1
100
AcDbEntity
  8
Rahmen (ISO)
100
AcDbMText
 10
333.2529931366445
 20
6.100000059604644
 30
0.0
 40
3.499999940395355
 41
0.0
 71
     7
 72
     1
  1
4
  7
Textstil7
 73
     1
 44
1.0
  0
MTEXT
  5
ED
330
B1
100
AcDbEntity
  8
Rahmen (ISO)
100
AcDbMText
 10
259.1783178150655
 20
410.4
 30
0.0
 40
3.499999940395355
 41
0.0
 71
     7
 72
     1
  1
5
  7
Textstil7
 73
     1
 44
1.777499914169311
  0
MTEXT
  5
EE
330
B1
100
AcDbEntity
  8
Rahmen (ISO)
100
AcDbMText
 10
259.1783178150655
 20
6.100000059604644
 30
0.0
 40
3.499999940395355
 41
0.0
 71
     7
 72
     1
  1
5
  7
Textstil7
 73
     1
 44
3.070624828338623
  0
MTEXT
  5
EF
330
B1
100
AcDbEntity
  8
Rahmen (ISO)
100
AcDbMText
 10
184.9283178150654
 20
410.4
 30
0.0
 40
3.499999940395355
 41
0.0
 71
     7
 72
     1
  1
6
  7
Textstil7
 73
     1
 44
1.0
  0
MTEXT
  5
F0
330
B1
100
AcDbEntity
  8
Rahmen (ISO)
100
AcDbMText
 10
184.9283178150654
 20
6.100000059604644
 30
0.0
 40
3.499999940395355
 41
0.0
 71
     7
 72
     1
  1
6
  7
Textstil7
 73
     1
 44
2.790512800216674
  0
MTEXT
  5
F1
330
B1
100
AcDbEntity
  8
Rahmen (ISO)
100
AcDbMText
 10
110.6734350025654
 20
410.4
 30
0.0
 40
3.499999940395355
 41
0.0
 71
     7
 72
     1
  1
7
  7
Textstil7
 73
     1
 44
1.777499914169311
  0
MTEXT
  5
F2
330
B1
100
AcDbEntity
  8
Rahmen (ISO)
100
AcDbMText
 10
110.6734350025654
 20
6.100000059604644
 30
0.0
 40
3.499999940395355
 41
0.0
 71
     7
 72
     1
  1
7
  7
Textstil7
 73
     1
 44
1.0
  0
MTEXT
  5
F3
330
B1
100
AcDbEntity
  8
Rahmen (ISO)
100
AcDbMText
 10
36.42831781506544
 20
410.4
 30
0.0
 40
3.499999940395355
 41
0.0
 71
     7
 72
     1
  1
8
  7
Textstil7
 73
     1
 44
1.0
  0
MTEXT
  5
F4
330
B1
100
AcDbEntity
  8
Rahmen (ISO)
100
AcDbMText
 10
36.42831781506544
 20
6.100000059604644
 30
0.0
 40
3.499999940395355
 41
0.0
 71
     7
 72
     1
  1
8
  7
Textstil7
 73
     1
 44
1.0
  0
LINE
  5
F5
330
B1
100
AcDbEntity
  8
Rahmen (ISO)
100
AcDbLine
 10
10.0
 20
70.0
 30
0.0
 11
6.100000143051147
 21
70.0
 31
0.0
  0
LINE
  5
F6
330
B1
100
AcDbEntity
  8
Rahmen (ISO)
100
AcDbLine
 10
584.000015258789
 20
70.0
 30
0.0
 11
587.9000091552734
 21
70.0
 31
0.0
  0
LINE
  5
F7
330
B1
100
AcDbEntity
  8
Rahmen (ISO)
100
AcDbLine
 10
10.0
 20
140.0
 30
0.0
 11
6.100000143051147
 21
140.0
 31
0.0
  0
LINE
  5
F8
330
B1
100
AcDbEntity
  8
Rahmen (ISO)
100
AcDbLine
 10
584.000015258789
 20
140.0
 30
0.0
 11
587.9000091552734
 21
140.0
 31
0.0
  0
LINE
  5
F9
330
B1
100
AcDbEntity
  8
Rahmen (ISO)
100
AcDbLine
 10
10.0
 20
280.0
 30
0.0
 11
6.100000143051147
 21
280.0
 31
0.0
  0
LINE
  5
FA
330
B1
100
AcDbEntity
  8
Rahmen (ISO)
100
AcDbLine
 10
584.000015258789
 20
280.0
 30
0.0
 11
587.9000091552734
 21
280.0
 31
0.0
  0
LINE
  5
FB
330
B1
100
AcDbEntity
  8
Rahmen (ISO)
100
AcDbLine
 10
10.0
 20
350.0
 30
0.0
 11
6.100000143051147
 21
350.0
 31
0.0
  0
LINE
  5
FC
330
B1
100
AcDbEntity
  8
Rahmen (ISO)
100
AcDbLine
 10
584.000015258789
 20
350.0
 30
0.0
 11
587.9000091552734
 21
350.0
 31
0.0
  0
MTEXT
  5
FD
330
B1
100
AcDbEntity
  8
Rahmen (ISO)
100
AcDbMText
 10
6.802668488025664
 20
33.25000002980232
 30
0.0
 40
3.499999940395355
 41
0.0
 71
     7
 72
     1
  1
A
  7
Textstil7
 73
     1
 44
1.0
  0
MTEXT
  5
FE
330
B1
100
AcDbEntity
  8
Rahmen (ISO)
100
AcDbMText
 10
585.1026684284211
 20
33.25000002980232
 30
0.0
 40
3.499999940395355
 41
0.0
 71
     7
 72
     1
  1
A
  7
Textstil7
 73
     1
 44
1.0
  0
MTEXT
  5
FF
330
B1
100
AcDbEntity
  8
Rahmen (ISO)
100
AcDbMText
 10
6.977993166446685
 20
103.2500000298023
 30
0.0
 40
3.499999940395355
 41
0.0
 71
     7
 72
     1
  1
B
  7
Textstil7
 73
     1
 44
1.0
  0
MTEXT
  5
100
330
B1
100
AcDbEntity
  8
Rahmen (ISO)
100
AcDbMText
 10
585.2779931068421
 20
103.2500000298023
 30
0.0
 40
3.499999940395355
 41
0.0
 71
     7
 72
     1
  1
B
  7
Textstil7
 73
     1
 44
1.0
  0
MTEXT
  5
101
330
B1
100
AcDbEntity
  8
Rahmen (ISO)
100
AcDbMText
 10
7.153317844867705
 20
173.2500000298023
 30
0.0
 40
3.499999940395355
 41
0.0
 71
     7
 72
     1
  1
C
  7
Textstil7
 73
     1
 44
2.572656154632568
  0
MTEXT
  5
102
330
B1
100
AcDbEntity
  8
Rahmen (ISO)
100
AcDbMText
 10
585.4533177852631
 20
173.2500000298023
 30
0.0
 40
3.499999940395355
 41
0.0
 71
     7
 72
     1
  1
C
  7
Textstil7
 73
     1
 44
1.0
  0
MTEXT
  5
103
330
B1
100
AcDbEntity
  8
Rahmen (ISO)
100
AcDbMText
 10
6.977993166446685
 20
243.2500000298023
 30
0.0
 40
3.499999940395355
 41
0.0
 71
     7
 72
     1
  1
D
  7
Textstil7
 73
     1
 44
1.0
  0
MTEXT
  5
104
330
B1
100
AcDbEntity
  8
Rahmen (ISO)
100
AcDbMText
 10
585.2779931068421
 20
243.2500000298023
 30
0.0
 40
3.499999940395355
 41
0.0
 71
     7
 72
     1
  1
D
  7
Textstil7
 73
     1
 44
2.880078077316284
  0
MTEXT
  5
105
330
B1
100
AcDbEntity
  8
Rahmen (ISO)
100
AcDbMText
 10
7.153317844867705
 20
313.2500000298023
 30
0.0
 40
3.499999940395355
 41
0.0
 71
     7
 72
     1
  1
E
  7
Textstil7
 73
     1
 44
1.0
  0
MTEXT
  5
106
330
B1
100
AcDbEntity
  8
Rahmen (ISO)
100
AcDbMText
 10
585.4533177852631
 20
313.2500000298023
 30
0.0
 40
3.499999940395355
 41
0.0
 71
     7
 72
     1
  1
E
  7
Textstil7
 73
     1
 44
1.0
  0
MTEXT
  5
107
330
B1
100
AcDbEntity
  8
Rahmen (ISO)
100
AcDbMText
 10
7.153317844867705
 20
383.2500000298023
 30
0.0
 40
3.499999940395355
 41
0.0
 71
     7
 72
     1
  1
F
  7
Textstil7
 73
     1
 44
1.0
  0
MTEXT
  5
108
330
B1
100
AcDbEntity
  8
Rahmen (ISO)
100
AcDbMText
 10
585.4533177852631
 20
383.2500000298023
 30
0.0
 40
3.499999940395355
 41
0.0
 71
     7
 72
     1
  1
F
  7
Textstil7
 73
     1
 44
1.0
  0
ENDBLK
  5
B3
330
B1
100
AcDbEntity
  8
0
100
AcDbBlockEnd
  0
BLOCK
  5
10B
330
10A
100
AcDbEntity
  8
0
100
AcDbBlockBegin
  2
Schriftfelder DIN
 70
     2
 10
0.0
 20
0.0
 30
0.0
  3
Schriftfelder DIN
  1

  0
LINE
  5
10D
330
10A
100
AcDbEntity
  8
Titel (ISO)
100
AcDbLine
 10
98.40092059607565
 20
99.828060382812
 30
0.0
 11
288.4009205960757
 21
99.82806038281204
 31
0.0
  0
LINE
  5
10E
330
10A
100
AcDbEntity
  8
Titel (ISO)
100
AcDbLine
 10
288.4009205960757
 20
99.82806038281204
 30
0.0
 11
288.4009205960757
 21
155.078060382812
 31
0.0
  0
LINE
  5
10F
330
10A
100
AcDbEntity
  8
Titel (ISO)
100
AcDbLine
 10
288.4009205960757
 20
155.078060382812
 30
0.0
 11
98.40092059607563
 21
155.078060382812
 31
0.0
  0
LINE
  5
110
330
10A
100
AcDbEntity
  8
Titel (ISO)
100
AcDbLine
 10
98.40092059607565
 20
155.078060382812
 30
0.0
 11
98.40092059607565
 21
99.828060382812
 31
0.0
  0
LINE
  5
111
330
10A
100
AcDbEntity
  8
Titel (ISO)
100
AcDbLine
 10
153.0009205960757
 20
99.828060382812
 30
0.0
 11
153.0009205960756
 21
155.078060382812
 31
0.0
  0
LINE
  5
112
330
10A
100
AcDbEntity
  8
Titel (ISO)
100
AcDbLine
 10
197.2009205960756
 20
99.828060382812
 30
0.0
 11
197.2009205960756
 21
155.078060382812
 31
0.0
  0
LINE
  5
113
330
10A
100
AcDbEntity
  8
Titel (ISO)
100
AcDbLine
 10
98.40092059607565
 20
138.078060382812
 30
0.0
 11
288.4009205960757
 21
138.0780603828121
 31
0.0
  0
LINE
  5
114
330
10A
100
AcDbEntity
  8
Titel (ISO)
100
AcDbLine
 10
153.0009205960757
 20
116.828060382812
 30
0.0
 11
288.4009205960757
 21
116.8280603828121
 31
0.0
  0
LINE
  5
115
330
10A
100
AcDbEntity
  8
Titel (ISO)
100
AcDbLine
 10
197.2009205960756
 20
148.328060382812
 30
0.0
 11
288.4009205960757
 21
148.328060382812
 31
0.0
  0
LINE
  5
116
330
10A
100
AcDbEntity
  8
Titel (ISO)
100
AcDbLine
 10
250.8
 20
148.328060382812
 30
0.0
 11
250.8
 21
155.078060382812
 31
0.0
  0
LINE
  5
117
330
10A
100
AcDbEntity
  8
Titel (ISO)
100
AcDbLine
 10
98.40092059607568
 20
104.078060382812
 30
0.0
 11
153.0009205960757
 21
104.078060382812
 31
0.0
  0
LINE
  5
118
330
10A
100
AcDbEntity
  8
Titel (ISO)
100
AcDbLine
 10
153.0009205960757
 20
104.078060382812
 30
0.0
 11
197.2009205960756
 21
104.078060382812
 31
0.0
  0
LINE
  5
119
330
10A
100
AcDbEntity
  8
Titel (ISO)
100
AcDbLine
 10
197.2009205960756
 20
104.078060382812
 30
0.0
 11
288.4009205960757
 21
104.078060382812
 31
0.0
  0
LINE
  5
11A
330
10A
100
AcDbEntity
  8
Titel (ISO)
100
AcDbLine
 10
242.8009205960757
 20
99.828060382812
 30
0.0
 11
242.8009205960757
 21
104.078060382812
 31
0.0
  0
LINE
  5
11B
330
10A
100
AcDbEntity
  8
Titel (ISO)
100
AcDbLine
 10
272.6009205960756
 20
104.078060382812
 30
0.0
 11
272.6009205960756
 21
116.8280603828121
 31
0.0
  0
LINE
  5
11C
330
10A
100
AcDbEntity
  8
Titel (ISO)
100
AcDbLine
 10
272.6009205960756
 20
108.2190860238377
 30
0.0
 11
288.4009205960757
 21
108.2190860238377
 31
0.0
  0
LINE
  5
11D
330
10A
100
AcDbEntity
  8
Titel (ISO)
100
AcDbLine
 10
153.0009205960757
 20
108.328060382812
 30
0.0
 11
98.40092059607565
 21
108.328060382812
 31
0.0
  0
LINE
  5
11E
330
10A
100
AcDbEntity
  8
Titel (ISO)
100
AcDbLine
 10
98.40092059607565
 20
112.578060382812
 30
0.0
 11
153.0009205960757
 21
112.578060382812
 31
0.0
  0
LINE
  5
11F
330
10A
100
AcDbEntity
  8
Titel (ISO)
100
AcDbLine
 10
98.40092059607565
 20
116.828060382812
 30
0.0
 11
153.0009205960757
 21
116.828060382812
 31
0.0
  0
LINE
  5
120
330
10A
100
AcDbEntity
  8
Titel (ISO)
100
AcDbLine
 10
98.40092059607565
 20
121.078060382812
 30
0.0
 11
153.0009205960757
 21
121.078060382812
 31
0.0
  0
LINE
  5
121
330
10A
100
AcDbEntity
  8
Titel (ISO)
100
AcDbLine
 10
153.0009205960757
 20
121.078060382812
 30
0.0
 11
197.2009205960756
 21
121.0780603828121
 31
0.0
  0
LINE
  5
122
330
10A
100
AcDbEntity
  8
Titel (ISO)
100
AcDbLine
 10
98.40092059607565
 20
125.328060382812
 30
0.0
 11
153.0009205960757
 21
125.3280603828121
 31
0.0
  0
LINE
  5
123
330
10A
100
AcDbEntity
  8
Titel (ISO)
100
AcDbLine
 10
153.0009205960757
 20
125.3280603828121
 30
0.0
 11
197.2009205960756
 21
125.3280603828121
 31
0.0
  0
LINE
  5
124
330
10A
100
AcDbEntity
  8
Titel (ISO)
100
AcDbLine
 10
98.40092059607565
 20
129.578060382812
 30
0.0
 11
153.0009205960757
 21
129.578060382812
 31
0.0
  0
LINE
  5
125
330
10A
100
AcDbEntity
  8
Titel (ISO)
100
AcDbLine
 10
153.0009205960757
 20
129.578060382812
 30
0.0
 11
197.2009205960756
 21
129.578060382812
 31
0.0
  0
LINE
  5
126
330
10A
100
AcDbEntity
  8
Titel (ISO)
100
AcDbLine
 10
98.40092059607565
 20
133.828060382812
 30
0.0
 11
153.0009205960757
 21
133.828060382812
 31
0.0
  0
LINE
  5
127
330
10A
100
AcDbEntity
  8
Titel (ISO)
100
AcDbLine
 10
153.0009205960757
 20
133.828060382812
 30
0.0
 11
197.2009205960756
 21
133.828060382812
 31
0.0
  0
LINE
  5
128
330
10A
100
AcDbEntity
  8
Titel (ISO)
100
AcDbLine
 10
106.2009205960756
 20
99.828060382812
 30
0.0
 11
106.2009205960756
 21
138.078060382812
 31
0.0
  0
LINE
  5
129
330
10A
100
AcDbEntity
  8
Titel (ISO)
100
AcDbLine
 10
132.2009205960756
 20
99.828060382812
 30
0.0
 11
132.2009205960756
 21
138.078060382812
 31
0.0
  0
LINE
  5
12A
330
10A
100
AcDbEntity
  8
Titel (ISO)
100
AcDbLine
 10
145.2009205960756
 20
99.828060382812
 30
0.0
 11
145.2009205960756
 21
138.078060382812
 31
0.0
  0
LINE
  5
12B
330
10A
100
AcDbEntity
  8
Titel (ISO)
100
AcDbLine
 10
163.4009205960756
 20
121.0780603828121
 30
0.0
 11
163.4009205960756
 21
138.0780603828121
 31
0.0
  0
LINE
  5
12C
330
10A
100
AcDbEntity
  8
Titel (ISO)
100
AcDbLine
 10
179.0009205960756
 20
116.828060382812
 30
0.0
 11
179.0009205960756
 21
138.0780603828121
 31
0.0
  0
LINE
  5
12D
330
10A
100
AcDbEntity
  8
Titel (ISO)
100
AcDbLine
 10
179.0009205960756
 20
138.0780603828121
 30
0.0
 11
179.0009205960756
 21
155.078060382812
 31
0.0
  0
TEXT
  5
12E
330
10A
100
AcDbEntity
  8
Titel (ISO)
100
AcDbText
 10
99.22592047388617
 20
101.2030603530097
 30
0.0
 40
1.500000059604644
  1
Status
  7
Notiztext (DIN)
 72
     1
 11
102.3009205960757
 21
101.953060382812
 31
0.0
100
AcDbText
 73
     2
  0
TEXT
  5
12F
330
10A
100
AcDbEntity
  8
Titel (ISO)
100
AcDbText
 10
113.8759203844792
 20
101.2030603530097
 30
0.0
 40
1.500000059604644
  1
Änderungen
  7
Notiztext (DIN)
 72
     1
 11
119.2009205960756
 21
101.953060382812
 31
0.0
100
AcDbText
 73
     2
  0
TEXT
  5
130
330
10A
100
AcDbEntity
  8
Titel (ISO)
100
AcDbText
 10
135.9259204858071
 20
101.2030603530097
 30
0.0
 40
1.500000059604644
  1
Datum
  7
Notiztext (DIN)
 72
     1
 11
138.7009205960757
 21
101.953060382812
 31
0.0
100
AcDbText
 73
     2
  0
TEXT
  5
131
330
10A
100
AcDbEntity
  8
Titel (ISO)
100
AcDbText
 10
146.7759205036885
 20
101.2030603530097
 30
0.0
 40
1.500000059604644
  1
Name
  7
Notiztext (DIN)
 72
     1
 11
149.1009205960757
 21
101.953060382812
 31
0.0
100
AcDbText
 73
     2
  0
TEXT
  5
132
330
10A
100
AcDbEntity
  8
Titel (ISO)
100
AcDbText
 10
154.0009205960757
 20
131.1780604066539
 30
0.0
 40
1.500000059604644
  1
Gezeichnet
  7
Notiztext (DIN)
 11
154.0009205960757
 21
130.578060382812
 31
0.0
100
AcDbText
 73
     1
  0
TEXT
  5
133
330
10A
100
AcDbEntity
  8
Titel (ISO)
100
AcDbText
 10
154.0009205960757
 20
126.9280604066539
 30
0.0
 40
1.500000059604644
  1
Kontrolliert
  7
Notiztext (DIN)
 11
154.0009205960757
 21
126.328060382812
 31
0.0
100
AcDbText
 73
     1
  0
TEXT
  5
134
330
10A
100
AcDbEntity
  8
Titel (ISO)
100
AcDbText
 10
154.0009205960757
 20
122.6780604066539
 30
0.0
 40
1.500000059604644
  1
Norm
  7
Notiztext (DIN)
 11
154.0009205960757
 21
122.0780603828121
 31
0.0
100
AcDbText
 73
     1
  0
TEXT
  5
135
330
10A
100
AcDbEntity
  8
Titel (ISO)
100
AcDbText
 10
167.5009205409413
 20
135.628060394733
 30
0.0
 40
2.000000029802322
  1
Datum
  7
Notiztext (DIN)
 72
     1
 11
171.2009205960756
 21
134.828060382812
 31
0.0
100
AcDbText
 73
     1
  0
TEXT
  5
136
330
10A
100
AcDbEntity
  8
Titel (ISO)
100
AcDbText
 10
185.000920549882
 20
135.628060394733
 30
0.0
 40
2.000000029802322
  1
Name
  7
Notiztext (DIN)
 72
     1
 11
188.1009205960756
 21
134.828060382812
 31
0.0
100
AcDbText
 73
     1
  0
ATTDEF
  5
137
330
10A
100
AcDbEntity
  8
Titel (ISO)
100
AcDbText
 10
277.7509205960758
 20
110.0235732033248
 30
0.0
 40
5.0
  1
1 
  7
Notiztext (DIN)
 72
     1
 11
280.5009205960757
 21
112.5235732033248
 31
0.0
100
AcDbAttributeDefinition
  3
Blattnummer
  2
Blattnummer
 70
     0
 74
     2
  0
ATTDEF
  5
138
330
10A
100
AcDbEntity
  8
Titel (ISO)
100
AcDbText
 10
278.5009205960757
 20
104.8985732033249
 30
0.0
 40
2.5
  1
A2
  7
Notiztext (DIN)
 72
     1
 11
280.5009205960757
 21
106.1485732033249
 31
0.0
100
AcDbAttributeDefinition
  3
Blattgröße
  2
Blattgröße
 70
     0
 74
     2
  0
ATTDEF
  5
139
330
10A
100
AcDbEntity
  8
Titel (ISO)
100
AcDbText
 10
198.2009205960756
 20
124.9530603828121
 30
0.0
 40
5.0
  1

  7
Notiztext (DIN)
 11
198.2009205960756
 21
127.4530603828121
 31
0.0
100
AcDbAttributeDefinition
  3
TITEL
  2
TITEL
 70
     0
 74
     2
  0
ATTDEF
  5
13A
330
10A
100
AcDbEntity
  8
Titel (ISO)
100
AcDbText
 10
198.2009205960756
 20
107.953060382812
 30
0.0
 40
5.0
  1

  7
Notiztext (DIN)
 11
198.2009205960756
 21
110.453060382812
 31
0.0
100
AcDbAttributeDefinition
  3
BAUTEILNUMMER
  2
BAUTEILNUMMER
 70
     0
 74
     2
  0
ATTDEF
  5
13B
330
10A
100
AcDbEntity
  8
Titel (ISO)
100
AcDbText
 10
164.4009205960756
 20
131.378060394733
 30
0.0
 40
2.000000029802322
  1
26.08.2008
  7
Notiztext (DIN)
 11
164.4009205960756
 21
130.578060382812
 31
0.0
100
AcDbAttributeDefinition
  3
ERSTELLUNGSDATUM
  2
ERSTELLUNGSDATUM
 70
     0
 74
     1
  0
ATTDEF
  5
13C
330
10A
100
AcDbEntity
  8
Titel (ISO)
100
AcDbText
 10
164.4009205960756
 20
127.128060394733
 30
0.0
 40
2.000000029802322
  1

  7
Notiztext (DIN)
 11
164.4009205960756
 21
126.328060382812
 31
0.0
100
AcDbAttributeDefinition
  3
KONTROLLDATUM
  2
KONTROLLDATUM
 70
     0
 74
     1
  0
ATTDEF
  5
13D
330
10A
100
AcDbEntity
  8
Titel (ISO)
100
AcDbText
 10
164.4009205960756
 20
122.878060394733
 30
0.0
 40
2.000000029802322
  1

  7
Notiztext (DIN)
 11
164.4009205960756
 21
122.0780603828121
 31
0.0
100
AcDbAttributeDefinition
  3
GENEHM.DAT. KONSTR.
  2
GENEHM.DAT._KONSTR.
 70
     0
 74
     1
  0
ATTDEF
  5
13E
330
10A
100
AcDbEntity
  8
Titel (ISO)
100
AcDbText
 10
180.0009205960756
 20
131.378060394733
 30
0.0
 40
2.000000029802322
  1
Hubert Lenker
  7
Notiztext (DIN)
 11
180.0009205960756
 21
130.5780603828121
 31
0.0
100
AcDbAttributeDefinition
  3
AUTOR
  2
AUTOR
 70
     0
 74
     1
  0
ATTDEF
  5
13F
330
10A
100
AcDbEntity
  8
Titel (ISO)
100
AcDbText
 10
180.0009205960756
 20
122.878060394733
 30
0.0
 40
2.000000029802322
  1

  7
Notiztext (DIN)
 11
180.0009205960756
 21
122.078060382812
 31
0.0
100
AcDbAttributeDefinition
  3
KONSTR. GEN. VON
  2
KONSTR._GEN._VON
 70
     0
 74
     1
  0
ATTDEF
  5
140
330
10A
100
AcDbEntity
  8
Titel (ISO)
100
AcDbText
 10
180.0009205960756
 20
127.128060394733
 30
0.0
 40
2.000000029802322
  1

  7
Notiztext (DIN)
 11
180.0009205960756
 21
126.328060382812
 31
0.0
100
AcDbAttributeDefinition
  3
KONTROLLIERT VON
  2
KONTROLLIERT_VON
 70
     0
 74
     1
  0
ENDBLK
  5
10C
330
10A
100
AcDbEntity
  8
0
100
AcDbBlockEnd
  0
BLOCK
  5
24F
330
24D
100
AcDbEntity
  8
0
100
AcDbBlockBegin
  2
GENAXEH
 70
     0
 10
0.0
 20
0.0
 30
0.0
  3
GENAXEH
  1

  0
LINE
  5
24E
330
24D
100
AcDbEntity
  8
0
100
AcDbLine
 10
-1.0
 20
0.0
 30
0.0
 11
1.0
 21
0.0
 31
0.0
  0
ENDBLK
  5
250
330
24D
100
AcDbEntity
  8
0
100
AcDbBlockEnd
  0
BLOCK
  5
278
330
274
100
AcDbEntity
  8
0
100
AcDbBlockBegin
  2
*S7
 70
     1
 10
0.0
 20
0.0
 30
0.0
  3
*S7
  1

  0
CIRCLE
  5
275
330
274
100
AcDbEntity
  8
AM_12
 62
     4
100
AcDbCircle
 10
12.5
 20
-81.0
 30
0.0
 40
1.75
  0
LINE
  5
276
330
274
100
AcDbEntity
  8
AM_12
 62
     4
100
AcDbLine
 10
10.75
 20
-82.75
 30
0.0
 11
14.25
 21
-79.25
 31
0.0
  0
LINE
  5
277
330
274
100
AcDbEntity
  8
AM_12
 62
     4
100
AcDbLine
 10
10.75
 20
-79.25
 30
0.0
 11
14.25
 21
-82.75
 31
0.0
  0
ENDBLK
  5
279
330
274
100
AcDbEntity
  8
0
100
AcDbBlockEnd
  0
ENDSEC
  0
SECTION
  2
ENTITIES
  0
LINE
  5
30B
330
23
100
AcDbEntity
  8
Sichtbar (ISO)
100
AcDbLine
 10
6.499999999999971
 20
-113.0
 30
0.0
 11
6.499999999999971
 21
-110.9999999999999
 31
0.0
1001
AcDbBlockRepETag
1070
     1
1071
        0
1005
30B
  0
LINE
  5
30C
330
23
100
AcDbEntity
  8
Sichtbar (ISO)
100
AcDbLine
 10
6.499999999999971
 20
-116.0
 30
0.0
 11
6.499999999999971
 21
-113.0
 31
0.0
1001
AcDbBlockRepETag
1070
     1
1071
        1
1005
30C
  0
LINE
  5
30D
330
23
100
AcDbEntity
  8
Sichtbar (ISO)
100
AcDbLine
 10
18.49999999999997
 20
-113.0
 30
0.0
 11
18.49999999999997
 21
-116.0
 31
0.0
1001
AcDbBlockRepETag
1070
     1
1071
        2
1005
30D
  0
LINE
  5
30E
330
23
100
AcDbEntity
  8
Sichtbar (ISO)
100
AcDbLine
 10
18.49999999999997
 20
-110.9999999999999
 30
0.0
 11
18.49999999999997
 21
-113.0
 31
0.0
1001
AcDbBlockRepETag
1070
     1
1071
        3
1005
30E
  0
LINE
  5
30F
330
23
100
AcDbEntity
  8
Sichtbar (ISO)
100
AcDbLine
 10
18.49999999999997
 20
-116.0
 30
0.0
 11
6.499999999999971
 21
-116.0
 31
0.0
1001
AcDbBlockRepETag
1070
     1
1071
        4
1005
30F
  0
LINE
  5
310
330
23
100
AcDbEntity
  8
Sichtbar (ISO)
100
AcDbLine
 10
0.0
 20
-113.0
 30
0.0
 11
0.0
 21
-116.0
 31
0.0
1001
AcDbBlockRepETag
1070
     1
1071
        5
1005
310
  0
LINE
  5
311
330
23
100
AcDbEntity
  8
Sichtbar (ISO)
100
AcDbLine
 10
0.0
 20
-110.9999999999999
 30
0.0
 11
0.0
 21
-113.0
 31
0.0
1001
AcDbBlockRepETag
1070
     1
1071
        6
1005
311
  0
LINE
  5
312
330
23
100
AcDbEntity
  8
Sichtbar (ISO)
100
AcDbLine
 10
25.0
 20
-116.0
 30
0.0
 11
18.49999999999997
 21
-116.0
 31
0.0
1001
AcDbBlockRepETag
1070
     1
1071
        7
1005
312
  0
LINE
  5
313
330
23
100
AcDbEntity
  8
Sichtbar (ISO)
100
AcDbLine
 10
25.0
 20
-116.0
 30
0.0
 11
25.0
 21
-113.0
 31
0.0
1001
AcDbBlockRepETag
1070
     1
1071
        8
1005
313
  0
LINE
  5
314
330
23
100
AcDbEntity
  8
Sichtbar (ISO)
100
AcDbLine
 10
25.0
 20
-113.0
 30
0.0
 11
18.49999999999997
 21
-113.0
 31
0.0
1001
AcDbBlockRepETag
1070
     1
1071
        9
1005
314
  0
LINE
  5
315
330
23
100
AcDbEntity
  8
Sichtbar (ISO)
100
AcDbLine
 10
6.499999999999971
 20
-113.0
 30
0.0
 11
0.0
 21
-113.0
 31
0.0
1001
AcDbBlockRepETag
1070
     1
1071
       10
1005
315
  0
LINE
  5
316
330
23
100
AcDbEntity
  8
Sichtbar (ISO)
100
AcDbLine
 10
6.499999999999971
 20
-116.0
 30
0.0
 11
0.0
 21
-116.0
 31
0.0
1001
AcDbBlockRepETag
1070
     1
1071
       11
1005
316
  0
LINE
  5
317
330
23
100
AcDbEntity
  8
Sichtbar (ISO)
100
AcDbLine
 10
25.0
 20
-113.0
 30
0.0
 11
25.0
 21
-110.9999999999999
 31
0.0
1001
AcDbBlockRepETag
1070
     1
1071
       12
1005
317
  0
LINE
  5
318
330
23
100
AcDbEntity
  8
Sichtbar (ISO)
100
AcDbLine
 10
9.512253056117145
 20
-108.7291343519037
 30
0.0
 11
9.512253056117145
 21
-105.2708656480964
 31
0.0
1001
AcDbBlockRepETag
1070
     1
1071
       13
1005
318
  0
ARC
  5
319
330
23
100
AcDbEntity
  8
Sichtbar (ISO)
100
AcDbCircle
 10
12.5
 20
-105.0
 30
0.0
 40
3.000000000000016
100
AcDbArc
 50
0.0
 51
185.1802073360216
1001
AcDbBlockRepETag
1070
     1
1071
       14
1005
319
  0
ARC
  5
31A
330
23
100
AcDbEntity
  8
Sichtbar (ISO)
100
AcDbCircle
 10
12.49999999999997
 20
-109.0
 30
0.0
 40
3.000000000000007
100
AcDbArc
 50
174.8197926639816
 51
354.8197926639816
1001
AcDbBlockRepETag
1070
     1
1071
       15
1005
31A
  0
LINE
  5
31B
330
23
100
AcDbEntity
  8
Sichtbar (ISO)
100
AcDbLine
 10
15.49999999999997
 20
-105.0
 30
0.0
 11
15.49999999999997
 21
-109.2708656480963
 31
0.0
1001
AcDbBlockRepETag
1070
     1
1071
       16
1005
31B
  0
LINE
  5
31C
330
23
100
AcDbEntity
  8
Sichtbar (ISO)
100
AcDbLine
 10
15.49999999999997
 20
-109.2708656480963
 30
0.0
 11
15.48774694388282
 21
-109.2708656480963
 31
0.0
1001
AcDbBlockRepETag
1070
     1
1071
       17
1005
31C
  0
LINE
  5
31D
330
23
100
AcDbEntity
  8
Sichtbar (ISO)
100
AcDbLine
 10
3.999999999999971
 20
-70.0
 30
0.0
 11
3.999999999999971
 21
-80.0
 31
0.0
1001
AcDbBlockRepETag
1070
     1
1071
       18
1005
31D
  0
LINE
  5
31E
330
23
100
AcDbEntity
  8
Sichtbar (ISO)
100
AcDbLine
 10
0.0
 20
-72.0
 30
0.0
 11
3.999999999999971
 21
-70.0
 31
0.0
1001
AcDbBlockRepETag
1070
     1
1071
       19
1005
31E
  0
LINE
  5
31F
330
23
100
AcDbEntity
  8
Sichtbar (ISO)
100
AcDbLine
 10
3.999999999999971
 20
-80.0
 30
0.0
 11
0.0
 21
-77.99999999999997
 31
0.0
1001
AcDbBlockRepETag
1070
     1
1071
       20
1005
31F
  0
LINE
  5
320
330
23
100
AcDbEntity
  8
Sichtbar (ISO)
100
AcDbLine
 10
0.0
 20
-77.99999999999997
 30
0.0
 11
0.0
 21
-72.0
 31
0.0
1001
AcDbBlockRepETag
1070
     1
1071
       21
1005
320
  0
LINE
  5
321
330
23
100
AcDbEntity
  8
Sichtbar (ISO)
100
AcDbLine
 10
21.00000000000003
 20
-80.0
 30
0.0
 11
21.00000000000003
 21
-69.99999999999997
 31
0.0
1001
AcDbBlockRepETag
1070
     1
1071
       22
1005
321
  0
LINE
  5
322
330
23
100
AcDbEntity
  8
Sichtbar (ISO)
100
AcDbLine
 10
25.0
 20
-77.99999999999997
 30
0.0
 11
21.00000000000003
 21
-80.0
 31
0.0
1001
AcDbBlockRepETag
1070
     1
1071
       23
1005
322
  0
LINE
  5
323
330
23
100
AcDbEntity
  8
Sichtbar (ISO)
100
AcDbLine
 10
21.00000000000003
 20
-69.99999999999997
 30
0.0
 11
25.0
 21
-72.0
 31
0.0
1001
AcDbBlockRepETag
1070
     1
1071
       24
1005
323
  0
LINE
  5
324
330
23
100
AcDbEntity
  8
Sichtbar (ISO)
100
AcDbLine
 10
25.0
 20
-72.0
 30
0.0
 11
25.0
 21
-77.99999999999997
 31
0.0
1001
AcDbBlockRepETag
1070
     1
1071
       25
1005
324
  0
LINE
  5
325
330
23
100
AcDbEntity
  8
Sichtbar (ISO)
100
AcDbLine
 10
0.0
 20
-72.0
 30
0.0
 11
0.0
 21
-46.0
 31
0.0
1001
AcDbBlockRepETag
1070
     1
1071
       26
1005
325
  0
LINE
  5
326
330
23
100
AcDbEntity
  8
Sichtbar (ISO)
100
AcDbLine
 10
0.0
 20
-110.9999999999999
 30
0.0
 11
0.0
 21
-77.99999999999997
 31
0.0
1001
AcDbBlockRepETag
1070
     1
1071
       27
1005
326
  0
LINE
  5
327
330
23
100
AcDbEntity
  8
Sichtbar (ISO)
100
AcDbLine
 10
25.0
 20
-77.99999999999997
 30
0.0
 11
25.0
 21
-110.9999999999999
 31
0.0
1001
AcDbBlockRepETag
1070
     1
1071
       28
1005
327
  0
LINE
  5
328
330
23
100
AcDbEntity
  8
Sichtbar (ISO)
100
AcDbLine
 10
25.0
 20
-46.0
 30
0.0
 11
25.0
 21
-72.0
 31
0.0
1001
AcDbBlockRepETag
1070
     1
1071
       29
1005
328
  0
LINE
  5
329
330
23
100
AcDbEntity
  8
Sichtbar (ISO)
100
AcDbLine
 10
18.50000000000003
 20
-46.0
 30
0.0
 11
18.50000000000003
 21
-52.0
 31
0.0
1001
AcDbBlockRepETag
1070
     1
1071
       30
1005
329
  0
ARC
  5
32A
330
23
100
AcDbEntity
  8
Sichtbar (ISO)
100
AcDbCircle
 10
12.5
 20
-52.0
 30
0.0
 40
5.999999999999998
100
AcDbArc
 50
180.0
 51
0.0
1001
AcDbBlockRepETag
1070
     1
1071
       31
1005
32A
  0
LINE
  5
32B
330
23
100
AcDbEntity
  8
Sichtbar (ISO)
100
AcDbLine
 10
18.50000000000003
 20
-105.0
 30
0.0
 11
18.50000000000003
 21
-110.9999999999999
 31
0.0
1001
AcDbBlockRepETag
1070
     1
1071
       32
1005
32B
  0
LINE
  5
32C
330
23
100
AcDbEntity
  8
Sichtbar (ISO)
100
AcDbLine
 10
6.499999999999971
 20
-110.9999999999999
 30
0.0
 11
6.500000000000028
 21
-105.0
 31
0.0
1001
AcDbBlockRepETag
1070
     1
1071
       33
1005
32C
  0
LINE
  5
32D
330
23
100
AcDbEntity
  8
Sichtbar (ISO)
100
AcDbLine
 10
25.0
 20
-110.9999999999999
 30
0.0
 11
18.50000000000003
 21
-110.9999999999999
 31
0.0
1001
AcDbBlockRepETag
1070
     1
1071
       34
1005
32D
  0
ARC
  5
32E
330
23
100
AcDbEntity
  8
Sichtbar (ISO)
100
AcDbCircle
 10
12.5
 20
-105.0
 30
0.0
 40
5.999999999999998
100
AcDbArc
 50
0.0
 51
180.0
1001
AcDbBlockRepETag
1070
     1
1071
       35
1005
32E
  0
LINE
  5
32F
330
23
100
AcDbEntity
  8
Sichtbar (ISO)
100
AcDbLine
 10
6.499999999999971
 20
-110.9999999999999
 30
0.0
 11
0.0
 21
-110.9999999999999
 31
0.0
1001
AcDbBlockRepETag
1070
     1
1071
       36
1005
32F
  0
LINE
  5
330
330
23
100
AcDbEntity
  8
Sichtbar (ISO)
100
AcDbLine
 10
18.50000000000003
 20
-46.0
 30
0.0
 11
25.0
 21
-46.0
 31
0.0
1001
AcDbBlockRepETag
1070
     1
1071
       37
1005
330
  0
LINE
  5
331
330
23
100
AcDbEntity
  8
Sichtbar (ISO)
100
AcDbLine
 10
6.500000000000028
 20
-52.0
 30
0.0
 11
6.500000000000028
 21
-46.0
 31
0.0
1001
AcDbBlockRepETag
1070
     1
1071
       38
1005
331
  0
LINE
  5
332
330
23
100
AcDbEntity
  8
Sichtbar (ISO)
100
AcDbLine
 10
0.0
 20
-46.0
 30
0.0
 11
6.500000000000028
 21
-46.0
 31
0.0
1001
AcDbBlockRepETag
1070
     1
1071
       39
1005
332
  0
CIRCLE
  5
333
330
23
100
AcDbEntity
  8
Sichtbar (ISO)
100
AcDbCircle
 10
12.5
 20
-76.99999999999997
 30
0.0
 40
8.015609770940692
1001
AcDbBlockRepETag
1070
     1
1071
       40
1005
333
  0
LINE
  5
334
330
23
100
AcDbEntity
  8
Sichtbar (ISO)
100
AcDbLine
 10
6.500000000000028
 20
-46.0
 30
0.0
 11
18.50000000000003
 21
-46.0
 31
0.0
1001
AcDbBlockRepETag
1070
     1
1071
       41
1005
334
  0
LINE
  5
335
330
23
100
AcDbEntity
  8
Sichtbar (ISO)
100
AcDbLine
 10
16.48514402895839
 20
-51.6555784494939
 30
0.0
 11
17.49068456514663
 21
-51.6949309340857
 31
0.0
1001
AcDbBlockRepETag
1070
     1
1071
       42
1005
335
  0
ARC
  5
336
330
23
100
AcDbEntity
  8
Sichtbar (ISO)
100
AcDbCircle
 10
12.5
 20
-52.00000000000006
 30
0.0
 40
4.999999999999997
100
AcDbArc
 50
3.498006505147344
 51
172.0196655506111
1001
AcDbBlockRepETag
1070
     1
1071
       43
1005
336
  0
LINE
  5
337
330
23
100
AcDbEntity
  8
Sichtbar (ISO)
100
AcDbLine
 10
7.5484211518459
 20
-51.30583397210478
 30
0.0
 11
8.553961688034206
 21
-51.34518645669658
 31
0.0
1001
AcDbBlockRepETag
1070
     1
1071
       44
1005
337
  0
ARC
  5
338
330
23
100
AcDbEntity
  8
Sichtbar (ISO)
100
AcDbCircle
 10
12.5
 20
-52.00000000000006
 30
0.0
 40
3.999999999999999
100
AcDbArc
 50
4.939591809338923
 51
170.5780802464204
1001
AcDbBlockRepETag
1070
     1
1071
       45
1005
338
  0
ARC
  5
339
330
23
100
AcDbEntity
  8
Sichtbar (ISO)
100
AcDbCircle
 10
12.5
 20
-52.00000000000006
 30
0.0
 40
4.999999999999998
100
AcDbArc
 50
183.4980065051473
 51
352.0196655506111
1001
AcDbBlockRepETag
1070
     1
1071
       46
1005
339
  0
LINE
  5
33A
330
23
100
AcDbEntity
  8
Sichtbar (ISO)
100
AcDbLine
 10
8.514855971041612
 20
-52.34442155050624
 30
0.0
 11
7.509315434853363
 21
-52.30506906591443
 31
0.0
1001
AcDbBlockRepETag
1070
     1
1071
       47
1005
33A
  0
LINE
  5
33B
330
23
100
AcDbEntity
  8
Sichtbar (ISO)
100
AcDbLine
 10
17.4515788481541
 20
-52.69416602789539
 30
0.0
 11
16.44603831196579
 21
-52.65481354330356
 31
0.0
1001
AcDbBlockRepETag
1070
     1
1071
       48
1005
33B
  0
ARC
  5
33C
330
23
100
AcDbEntity
  8
Sichtbar (ISO)
100
AcDbCircle
 10
12.5
 20
-52.00000000000006
 30
0.0
 40
3.999999999999999
100
AcDbArc
 50
184.9395918093389
 51
350.5780802464204
1001
AcDbBlockRepETag
1070
     1
1071
       49
1005
33C
  0
LINE
  5
33D
330
23
100
AcDbEntity
  8
Sichtbar (ISO)
100
AcDbLine
 10
8.553961578033806
 20
-51.34518645984792
 30
0.0
 11
12.01993531874495
 21
-51.4808296023352
 31
0.0
1001
AcDbBlockRepETag
1070
     1
1071
       50
1005
33D
  0
ARC
  5
33E
330
23
100
AcDbEntity
  8
Sichtbar (ISO)
100
AcDbCircle
 10
12.5
 20
-52.00000000000006
 30
0.0
 40
5.000000000000013
100
AcDbArc
 50
352.0196655506111
 51
3.498006505147344
1001
AcDbBlockRepETag
1070
     1
1071
       51
1005
33E
  0
ARC
  5
33F
330
23
100
AcDbEntity
  8
Sichtbar (ISO)
100
AcDbCircle
 10
12.50000000000003
 20
-52.00000000000006
 30
0.0
 40
5.000000000000036
100
AcDbArc
 50
172.0196655506111
 51
183.4980065051473
1001
AcDbBlockRepETag
1070
     1
1071
       52
1005
33F
  0
LINE
  5
340
330
23
100
AcDbEntity
  8
Sichtbar (ISO)
100
AcDbLine
 10
11.98082960233515
 20
-52.4800646812551
 30
0.0
 11
8.514855861623971
 21
-52.34442153876782
 31
0.0
1001
AcDbBlockRepETag
1070
     1
1071
       53
1005
340
  0
LINE
  5
341
330
23
100
AcDbEntity
  8
Sichtbar (ISO)
100
AcDbLine
 10
16.44603842196619
 20
-52.65481354015221
 30
0.0
 11
12.98006468125504
 21
-52.51917039766493
 31
0.0
1001
AcDbBlockRepETag
1070
     1
1071
       54
1005
341
  0
LINE
  5
342
330
23
100
AcDbEntity
  8
Sichtbar (ISO)
100
AcDbLine
 10
12.01993531874495
 20
-51.48082960233523
 30
0.0
 11
12.11769960976957
 21
-48.98274190503548
 31
0.0
1001
AcDbBlockRepETag
1070
     1
1071
       55
1005
342
  0
LINE
  5
343
330
23
100
AcDbEntity
  8
Sichtbar (ISO)
100
AcDbLine
 10
11.8830653113105
 20
-54.97815237855488
 30
0.0
 11
11.98082960233515
 21
-52.4800646812551
 31
0.0
1001
AcDbBlockRepETag
1070
     1
1071
       56
1005
343
  0
LINE
  5
344
330
23
100
AcDbEntity
  8
Sichtbar (ISO)
100
AcDbLine
 10
13.1169346886895
 20
-49.02184762144526
 30
0.0
 11
13.01917039766485
 21
-51.51993531874504
 31
0.0
1001
AcDbBlockRepETag
1070
     1
1071
       57
1005
344
  0
LINE
  5
345
330
23
100
AcDbEntity
  8
Sichtbar (ISO)
100
AcDbLine
 10
12.88230039023043
 20
-55.01725809496472
 30
0.0
 11
11.8830653113105
 21
-54.97815237855488
 31
0.0
1001
AcDbBlockRepETag
1070
     1
1071
       58
1005
345
  0
LINE
  5
346
330
23
100
AcDbEntity
  8
Sichtbar (ISO)
100
AcDbLine
 10
12.98006468125504
 20
-52.51917039766491
 30
0.0
 11
12.88230039023043
 21
-55.01725809496469
 31
0.0
1001
AcDbBlockRepETag
1070
     1
1071
       59
1005
346
  0
LINE
  5
347
330
23
100
AcDbEntity
  8
Sichtbar (ISO)
100
AcDbLine
 10
12.11769960976957
 20
-48.98274190503542
 30
0.0
 11
13.1169346886895
 21
-49.02184762144526
 31
0.0
1001
AcDbBlockRepETag
1070
     1
1071
       60
1005
347
  0
LINE
  5
348
330
23
100
AcDbEntity
  8
Sichtbar (ISO)
100
AcDbLine
 10
13.01917039766485
 20
-51.51993531874504
 30
0.0
 11
16.48514413837603
 21
-51.65557846123232
 31
0.0
1001
AcDbBlockRepETag
1070
     1
1071
       61
1005
348
  0
ENDSEC
  0
SECTION
  2
OBJECTS
  0
DICTIONARY
  5
C
330
0
100
AcDbDictionary
281
     1
  3
ACAD_COLOR
350
1C
  3
ACAD_GROUP
350
D
  3
ACAD_LAYOUT
350
1A
  3
ACAD_MATERIAL
350
1B
  3
ACAD_MLINESTYLE
350
17
  3
ACAD_PLOTSETTINGS
350
19
  3
ACAD_PLOTSTYLENAME
350
E
  3
ACAD_TABLESTYLE
350
1D
  3
AcDbVariableDictionary
350
18D
  3
AcmDictionary
350
1EF
  3
AMG
350
196
  3
AMGSNAPSETTINGS
350
264
  0
DICTIONARY
  5
34A
330
23
100
AcDbDictionary
280
     1
281
     1
  0
DICTIONARY
  5
1C
102
{ACAD_REACTORS
330
C
102
}
330
C
100
AcDbDictionary
281
     1
  0
DICTIONARY
  5
D
102
{ACAD_REACTORS
330
C
102
}
330
C
100
AcDbDictionary
281
     1
  3
IVT_MS_01116000_IAM_1_V1
350
14E
  0
DICTIONARY
  5
1A
102
{ACAD_REACTORS
330
C
102
}
330
C
100
AcDbDictionary
281
     1
  3
Layout1
350
22
  3
Layout2
350
2A
  3
Model
350
26
  0
DICTIONARY
  5
1B
102
{ACAD_REACTORS
330
C
102
}
330
C
100
AcDbDictionary
281
     1
  0
DICTIONARY
  5
17
102
{ACAD_REACTORS
330
C
102
}
330
C
100
AcDbDictionary
281
     1
  3
Standard
350
18
  0
DICTIONARY
  5
19
102
{ACAD_REACTORS
330
C
102
}
330
C
100
AcDbDictionary
281
     1
  0
ACDBDICTIONARYWDFLT
  5
E
102
{ACAD_REACTORS
330
C
102
}
330
C
100
AcDbDictionary
281
     1
  3
Normal
350
F
100
AcDbDictionaryWithDefault
340
F
  0
DICTIONARY
  5
1D
102
{ACAD_REACTORS
330
C
102
}
330
C
100
AcDbDictionary
281
     1
  3
Standard
350
1E
  0
DICTIONARY
  5
18D
102
{ACAD_REACTORS
330
C
102
}
330
C
100
AcDbDictionary
281
     1
  3
CTABLESTYLE
350
18E
  0
DICTIONARY
  5
1EF
102
{ACAD_REACTORS
330
C
102
}
330
C
100
AcDbDictionary
281
     1
  3
AcmStdDictionary
350
1FB
  3
AMDTSECTSYM_ARROWCOLOR
350
21E
  0
DICTIONARY
  5
196
102
{ACAD_REACTORS
330
C
102
}
330
C
100
AcDbDictionary
281
     1
  0
DICTIONARY
  5
264
102
{ACAD_REACTORS
330
C
102
}
330
C
100
AcDbDictionary
281
     1
  0
GROUP
  5
14E
102
{ACAD_REACTORS
330
D
102
}
330
D
100
AcDbGroup
300

 70
     0
 71
     1
340
14D
340
150
340
151
340
152
340
153
340
154
340
155
340
156
340
157
340
158
340
159
340
15A
340
15B
340
15C
340
15D
340
15E
340
15F
340
160
340
161
340
162
340
163
340
164
340
165
340
166
340
167
340
168
340
169
340
16A
340
16B
340
16C
340
16D
340
16E
340
16F
340
170
340
171
340
172
340
173
340
174
340
175
340
176
340
177
340
178
340
179
340
17A
340
17B
340
17C
340
17D
340
17E
340
17F
340
180
340
181
340
182
340
183
340
184
340
185
340
186
340
187
340
188
340
189
340
18A
340
18B
340
18C
340
262
1001
INVENTOR_2DTRANSLATOR_APPLICATION
1000

1000

1000

1000

  0
LAYOUT
  5
22
102
{ACAD_REACTORS
330
1A
102
}
330
1A
100
AcDbPlotSettings
  1

  2

  4

  6

 40
0.0
 41
0.0
 42
0.0
 43
0.0
 44
0.0
 45
0.0
 46
0.0
 47
0.0
 48
0.0
 49
0.0
140
0.0
141
0.0
142
1.0
143
1.0
 70
   688
 72
     0
 73
     0
 74
     5
  7

 75
    16
147
1.0
 76
     0
 77
     2
 78
   300
148
0.0
149
0.0
100
AcDbLayout
  1
Layout1
 70
     1
 71
     1
 10
0.0
 20
0.0
 11
594.0
 21
420.0
 12
0.0
 22
0.0
 32
0.0
 14
0.0
 24
0.0
 34
0.0
 15
594.0
 25
420.0
 35
0.0
146
0.0
 13
0.0
 23
0.0
 33
0.0
 16
1.0
 26
0.0
 36
0.0
 17
0.0
 27
1.0
 37
0.0
 76
     0
330
1F
  0
LAYOUT
  5
2A
102
{ACAD_REACTORS
330
1A
102
}
330
1A
100
AcDbPlotSettings
  1

  2

  4

  6

 40
0.0
 41
0.0
 42
0.0
 43
0.0
 44
0.0
 45
0.0
 46
0.0
 47
0.0
 48
0.0
 49
0.0
140
0.0
141
0.0
142
1.0
143
1.0
 70
   688
 72
     0
 73
     0
 74
     5
  7

 75
    16
147
1.0
 76
     0
 77
     2
 78
   300
148
0.0
149
0.0
100
AcDbLayout
  1
Layout2
 70
     1
 71
     2
 10
0.0
 20
0.0
 11
12.0
 21
9.0
 12
0.0
 22
0.0
 32
0.0
 14
0.0
 24
0.0
 34
0.0
 15
0.0
 25
0.0
 35
0.0
146
0.0
 13
0.0
 23
0.0
 33
0.0
 16
1.0
 26
0.0
 36
0.0
 17
0.0
 27
1.0
 37
0.0
 76
     0
330
27
  0
LAYOUT
  5
26
102
{ACAD_REACTORS
330
1A
102
}
330
1A
100
AcDbPlotSettings
  1

  2

  4

  6

 40
0.0
 41
0.0
 42
0.0
 43
0.0
 44
0.0
 45
0.0
 46
0.0
 47
0.0
 48
0.0
 49
0.0
140
0.0
141
0.0
142
1.0
143
1.0
 70
  1712
 72
     0
 73
     0
 74
     0
  7

 75
     0
147
1.0
 76
     0
 77
     2
 78
   300
148
0.0
149
0.0
100
AcDbLayout
  1
Model
 70
     1
 71
     0
 10
0.0
 20
0.0
 11
12.0
 21
9.0
 12
0.0
 22
0.0
 32
0.0
 14
0.0
 24
0.0
 34
0.0
 15
0.0
 25
0.0
 35
0.0
146
0.0
 13
0.0
 23
0.0
 33
0.0
 16
1.0
 26
0.0
 36
0.0
 17
0.0
 27
1.0
 37
0.0
 76
     0
330
23
  0
MLINESTYLE
  5
18
102
{ACAD_REACTORS
330
17
102
}
330
17
100
AcDbMlineStyle
  2
STANDARD
 70
     0
  3

 62
   256
 51
90.0
 52
90.0
 71
     2
 49
0.5
 62
   256
  6
BYLAYER
 49
-0.5
 62
   256
  6
BYLAYER
  0
ACDBPLACEHOLDER
  5
F
102
{ACAD_REACTORS
330
E
102
}
330
E
  0
TABLESTYLE
  5
1E
102
{ACAD_REACTORS
330
1D
102
}
330
1D
100
AcDbTableStyle
  3
Standard
 70
     0
 71
     0
 40
0.06
 41
0.06
280
     0
281
     0
  7
Standard
140
0.18
170
     2
 62
     0
 63
     7
283
     0
274
    -2
284
     1
 64
     0
275
    -2
285
     1
 65
     0
276
    -2
286
     1
 66
     0
277
    -2
287
     1
 67
     0
278
    -2
288
     1
 68
     0
279
    -2
289
     1
 69
     0
  7
Standard
140
0.25
170
     5
 62
     0
 63
     7
283
     0
274
    -2
284
     1
 64
     0
275
    -2
285
     1
 65
     0
276
    -2
286
     1
 66
     0
277
    -2
287
     1
 67
     0
278
    -2
288
     1
 68
     0
279
    -2
289
     1
 69
     0
  7
Standard
140
0.18
170
     5
 62
     0
 63
     7
283
     0
274
    -2
284
     1
 64
     0
275
    -2
285
     1
 65
     0
276
    -2
286
     1
 66
     0
277
    -2
287
     1
 67
     0
278
    -2
288
     1
 68
     0
279
    -2
289
     1
 69
     0
  0
DICTIONARYVAR
  5
18E
102
{ACAD_REACTORS
330
18D
102
}
330
18D
100
DictionaryVariables
280
     0
  1
STANDARD
  0
DICTIONARY
  5
1FB
102
{ACAD_REACTORS
330
1EF
102
}
330
1EF
100
AcDbDictionary
281
     1
  0
XRECORD
  5
21E
102
{ACAD_REACTORS
330
1EF
102
}
330
1EF
100
AcDbXrecord
280
     1
 90
-1023410169
  0
ENDSEC
  0
EOF
