  0
SECTION
  2
HEADER
  9
$ACADVER
  1
AC1018
  9
$ACADMAINTVER
 70
   104
  9
$DWGCODEPAGE
  3
ANSI_1252
  9
$AUTHOR
  1
rauch
  9
$LASTSAVEDBY
  1
rauch
  9
$CUSTOMPROPERTYTAG
  1
Manager
  9
$CUSTOMPROPERTY
  1

  9
$CUSTOMPROPERTYTAG
  1
Firma
  9
$CUSTOMPROPERTY
  1

  9
$CUSTOMPROPERTYTAG
  1
Kategorie
  9
$CUSTOMPROPERTY
  1

  9
$CUSTOMPROPERTYTAG
  1
Bauteilnummer
  9
$CUSTOMPROPERTY
  1

  9
$CUSTOMPROPERTYTAG
  1
Bezeichnung
  9
$CUSTOMPROPERTY
  1

  9
$CUSTOMPROPERTYTAG
  1
Projekt
  9
$CUSTOMPROPERTY
  1

  9
$CUSTOMPROPERTYTAG
  1
Konstrukteur
  9
$CUSTOMPROPERTY
  1
rauch
  9
$CUSTOMPROPERTYTAG
  1
Ingenieur
  9
$CUSTOMPROPERTY
  1

  9
$CUSTOMPROPERTYTAG
  1
Bevollmächtigter
  9
$CUSTOMPROPERTY
  1

  9
$CUSTOMPROPERTYTAG
  1
Kostenstelle
  9
$CUSTOMPROPERTY
  1

  9
$CUSTOMPROPERTYTAG
  1
Zulieferer
  9
$CUSTOMPROPERTY
  1

  9
$CUSTOMPROPERTYTAG
  1
Benutzerstatus
  9
$CUSTOMPROPERTY
  1

  9
$CUSTOMPROPERTYTAG
  1
Konstruktionsstatus
  9
$CUSTOMPROPERTY
  1
InBearbeitung
  9
$CUSTOMPROPERTYTAG
  1
Kontrolliert von
  9
$CUSTOMPROPERTY
  1

  9
$CUSTOMPROPERTYTAG
  1
Konstruktion genehmigt von
  9
$CUSTOMPROPERTY
  1

  9
$CUSTOMPROPERTYTAG
  1
Fertigung genehmigt von
  9
$CUSTOMPROPERTY
  1

  9
$INSBASE
 10
0.0
 20
0.0
 30
0.0
  9
$EXTMIN
 10
0.0
 20
0.0
 30
0.0
  9
$EXTMAX
 10
2970.000076293946
 20
2100.0
 30
0.0
  9
$LIMMIN
 10
0.0
 20
0.0
  9
$LIMMAX
 10
2970.0
 20
2100.0
  9
$ORTHOMODE
 70
     0
  9
$REGENMODE
 70
     1
  9
$FILLMODE
 70
     1
  9
$QTEXTMODE
 70
     0
  9
$MIRRTEXT
 70
     0
  9
$LTSCALE
 40
5.0
  9
$ATTMODE
 70
     1
  9
$TEXTSIZE
 40
0.2
  9
$TRACEWID
 40
0.05
  9
$TEXTSTYLE
  7
Norm
  9
$CLAYER
  8
0
  9
$CELTYPE
  6
ByLayer
  9
$CECOLOR
 62
   256
  9
$CELTSCALE
 40
1.0
  9
$DISPSILH
 70
     0
  9
$DIMSCALE
 40
1.0
  9
$DIMASZ
 40
1.799999999999999
  9
$DIMEXO
 40
0.0625
  9
$DIMDLI
 40
0.38
  9
$DIMRND
 40
0.0
  9
$DIMDLE
 40
0.0
  9
$DIMEXE
 40
0.18
  9
$DIMTP
 40
0.0
  9
$DIMTM
 40
0.0
  9
$DIMTXT
 40
1.799999999999999
  9
$DIMCEN
 40
0.09
  9
$DIMTSZ
 40
0.0
  9
$DIMTOL
 70
     0
  9
$DIMLIM
 70
     0
  9
$DIMTIH
 70
     1
  9
$DIMTOH
 70
     1
  9
$DIMSE1
 70
     0
  9
$DIMSE2
 70
     0
  9
$DIMTAD
 70
     0
  9
$DIMZIN
 70
     0
  9
$DIMBLK
  1

  9
$DIMASO
 70
     1
  9
$DIMSHO
 70
     1
  9
$DIMPOST
  1

  9
$DIMAPOST
  1

  9
$DIMALT
 70
     0
  9
$DIMALTD
 70
     2
  9
$DIMALTF
 40
25.4
  9
$DIMLFAC
 40
1.0
  9
$DIMTOFL
 70
     0
  9
$DIMTVP
 40
0.0
  9
$DIMTIX
 70
     0
  9
$DIMSOXD
 70
     0
  9
$DIMSAH
 70
     0
  9
$DIMBLK1
  1

  9
$DIMBLK2
  1

  9
$DIMSTYLE
  2
Standard
  9
$DIMCLRD
 70
     0
  9
$DIMCLRE
 70
     0
  9
$DIMCLRT
 70
     0
  9
$DIMTFAC
 40
1.0
  9
$DIMGAP
 40
0.09
  9
$DIMJUST
 70
     0
  9
$DIMSD1
 70
     0
  9
$DIMSD2
 70
     0
  9
$DIMTOLJ
 70
     1
  9
$DIMTZIN
 70
     0
  9
$DIMALTZ
 70
     0
  9
$DIMALTTZ
 70
     0
  9
$DIMUPT
 70
     0
  9
$DIMDEC
 70
     4
  9
$DIMTDEC
 70
     4
  9
$DIMALTU
 70
     2
  9
$DIMALTTD
 70
     2
  9
$DIMTXSTY
  7
Norm
  9
$DIMAUNIT
 70
     0
  9
$DIMADEC
 70
     0
  9
$DIMALTRND
 40
0.0
  9
$DIMAZIN
 70
     0
  9
$DIMDSEP
 70
    46
  9
$DIMATFIT
 70
     3
  9
$DIMFRAC
 70
     0
  9
$DIMLDRBLK
  1

  9
$DIMLUNIT
 70
     2
  9
$DIMLWD
 70
    -2
  9
$DIMLWE
 70
    -2
  9
$DIMTMOVE
 70
     0
  9
$LUNITS
 70
     2
  9
$LUPREC
 70
     4
  9
$SKETCHINC
 40
0.1
  9
$FILLETRAD
 40
0.0
  9
$AUNITS
 70
     0
  9
$AUPREC
 70
     0
  9
$MENU
  1
.
  9
$ELEVATION
 40
0.0
  9
$PELEVATION
 40
0.0
  9
$THICKNESS
 40
0.0
  9
$LIMCHECK
 70
     0
  9
$CHAMFERA
 40
0.0
  9
$CHAMFERB
 40
0.0
  9
$CHAMFERC
 40
0.0
  9
$CHAMFERD
 40
0.0
  9
$SKPOLY
 70
     0
  9
$TDCREATE
 40
2455523.443044155
  9
$TDUCREATE
 40
2455523.401377488
  9
$TDUPDATE
 40
2455523.452105035
  9
$TDUUPDATE
 40
2455523.410438368
  9
$TDINDWG
 40
0.0050603935
  9
$TDUSRTIMER
 40
0.0050603935
  9
$USRTIMER
 70
     1
  9
$ANGBASE
 50
0.0
  9
$ANGDIR
 70
     0
  9
$PDMODE
 70
     0
  9
$PDSIZE
 40
0.0
  9
$PLINEWID
 40
0.0
  9
$SPLFRAME
 70
     0
  9
$SPLINETYPE
 70
     6
  9
$SPLINESEGS
 70
     8
  9
$HANDSEED
  5
2B9
  9
$SURFTAB1
 70
     6
  9
$SURFTAB2
 70
     6
  9
$SURFTYPE
 70
     6
  9
$SURFU
 70
     6
  9
$SURFV
 70
     6
  9
$UCSBASE
  2

  9
$UCSNAME
  2

  9
$UCSORG
 10
0.0
 20
0.0
 30
0.0
  9
$UCSXDIR
 10
1.0
 20
0.0
 30
0.0
  9
$UCSYDIR
 10
0.0
 20
1.0
 30
0.0
  9
$UCSORTHOREF
  2

  9
$UCSORTHOVIEW
 70
     0
  9
$UCSORGTOP
 10
0.0
 20
0.0
 30
0.0
  9
$UCSORGBOTTOM
 10
0.0
 20
0.0
 30
0.0
  9
$UCSORGLEFT
 10
0.0
 20
0.0
 30
0.0
  9
$UCSORGRIGHT
 10
0.0
 20
0.0
 30
0.0
  9
$UCSORGFRONT
 10
0.0
 20
0.0
 30
0.0
  9
$UCSORGBACK
 10
0.0
 20
0.0
 30
0.0
  9
$PUCSBASE
  2

  9
$PUCSNAME
  2

  9
$PUCSORG
 10
0.0
 20
0.0
 30
0.0
  9
$PUCSXDIR
 10
1.0
 20
0.0
 30
0.0
  9
$PUCSYDIR
 10
0.0
 20
1.0
 30
0.0
  9
$PUCSORTHOREF
  2

  9
$PUCSORTHOVIEW
 70
     0
  9
$PUCSORGTOP
 10
0.0
 20
0.0
 30
0.0
  9
$PUCSORGBOTTOM
 10
0.0
 20
0.0
 30
0.0
  9
$PUCSORGLEFT
 10
0.0
 20
0.0
 30
0.0
  9
$PUCSORGRIGHT
 10
0.0
 20
0.0
 30
0.0
  9
$PUCSORGFRONT
 10
0.0
 20
0.0
 30
0.0
  9
$PUCSORGBACK
 10
0.0
 20
0.0
 30
0.0
  9
$USERI1
 70
     0
  9
$USERI2
 70
     0
  9
$USERI3
 70
     0
  9
$USERI4
 70
     0
  9
$USERI5
 70
     0
  9
$USERR1
 40
0.0
  9
$USERR2
 40
0.0
  9
$USERR3
 40
0.0
  9
$USERR4
 40
0.0
  9
$USERR5
 40
0.0
  9
$WORLDVIEW
 70
     1
  9
$SHADEDGE
 70
     3
  9
$SHADEDIF
 70
    70
  9
$TILEMODE
 70
     1
  9
$MAXACTVP
 70
    64
  9
$PINSBASE
 10
0.0
 20
0.0
 30
0.0
  9
$PLIMCHECK
 70
     0
  9
$PEXTMIN
 10
0.0
 20
0.0
 30
0.0
  9
$PEXTMAX
 10
2970.0
 20
2100.0
 30
0.0
  9
$PLIMMIN
 10
0.0
 20
0.0
  9
$PLIMMAX
 10
2970.0
 20
2100.0
  9
$UNITMODE
 70
     0
  9
$VISRETAIN
 70
     1
  9
$PLINEGEN
 70
     0
  9
$PSLTSCALE
 70
     1
  9
$TREEDEPTH
 70
  3020
  9
$CMLSTYLE
  2
Standard
  9
$CMLJUST
 70
     0
  9
$CMLSCALE
 40
1.0
  9
$PROXYGRAPHICS
 70
     1
  9
$MEASUREMENT
 70
     1
  9
$CELWEIGHT
370
    -1
  9
$ENDCAPS
280
     0
  9
$JOINSTYLE
280
     0
  9
$LWDISPLAY
290
     0
  9
$INSUNITS
 70
     4
  9
$HYPERLINKBASE
  1

  9
$STYLESHEET
  1

  9
$XEDIT
290
     1
  9
$CEPSNTYPE
380
     0
  9
$PSTYLEMODE
290
     1
  9
$FINGERPRINTGUID
  2
{C2E271AE-9BBE-4811-9AB7-81853EF9CC9E}
  9
$VERSIONGUID
  2
{20AF2EDF-D898-4CD6-85F3-073781598FD5}
  9
$EXTNAMES
290
     1
  9
$PSVPSCALE
 40
0.0
  9
$OLESTARTUP
290
     0
  9
$SORTENTS
280
   127
  9
$INDEXCTL
280
     0
  9
$HIDETEXT
280
     1
  9
$XCLIPFRAME
290
     0
  9
$HALOGAP
280
     0
  9
$OBSCOLOR
 70
   257
  9
$OBSLTYPE
280
     0
  9
$INTERSECTIONDISPLAY
280
     0
  9
$INTERSECTIONCOLOR
 70
   257
  9
$DIMASSOC
280
     1
  9
$PROJECTNAME
  1

  0
ENDSEC
  0
SECTION
  2
CLASSES
  0
CLASS
  1
ACDBDICTIONARYWDFLT
  2
AcDbDictionaryWithDefault
  3
ObjectDBX Classes
 90
        0
 91
        1
280
     0
281
     0
  0
CLASS
  1
MATERIAL
  2
AcDbMaterial
  3
ObjectDBX Classes
 90
     1153
 91
        3
280
     0
281
     0
  0
CLASS
  1
VISUALSTYLE
  2
AcDbVisualStyle
  3
ObjectDBX Classes
 90
     4095
 91
       16
280
     0
281
     0
  0
CLASS
  1
SCALE
  2
AcDbScale
  3
ObjectDBX Classes
 90
     1153
 91
       33
280
     0
281
     0
  0
CLASS
  1
TABLESTYLE
  2
AcDbTableStyle
  3
ObjectDBX Classes
 90
     4095
 91
        1
280
     0
281
     0
  0
CLASS
  1
MLEADERSTYLE
  2
AcDbMLeaderStyle
  3
ACDB_MLEADERSTYLE_CLASS
 90
     4095
 91
        1
280
     0
281
     0
  0
CLASS
  1
CELLSTYLEMAP
  2
AcDbCellStyleMap
  3
ObjectDBX Classes
 90
     1152
 91
        2
280
     0
281
     0
  0
CLASS
  1
DICTIONARYVAR
  2
AcDbDictionaryVar
  3
ObjectDBX Classes
 90
        0
 91
        7
280
     0
281
     0
  0
CLASS
  1
EXACXREFPANELOBJECT
  2
ExAcXREFPanelObject
  3
EXAC_ESW
 90
     1025
 91
        1
280
     0
281
     0
  0
CLASS
  1
NPOCOLLECTION
  2
AcDbImpNonPersistentObjectsCollection
  3
ObjectDBX Classes
 90
     1153
 91
        1
280
     0
281
     0
  0
ENDSEC
  0
SECTION
  2
TABLES
  0
TABLE
  2
VPORT
  5
8
102
{ACAD_XDICTIONARY
360
291
102
}
330
0
100
AcDbSymbolTable
 70
     1
  0
VPORT
  5
5F
330
8
100
AcDbSymbolTableRecord
100
AcDbViewportTableRecord
  2
*Active
 70
     0
 10
0.0
 20
0.0
 11
1.0
 21
1.0
 12
2413.006674270789
 22
975.5088438983149
 13
0.0
 23
0.0
 14
1.0
 24
1.0
 15
0.0
 25
0.0
 16
0.0
 26
0.0
 36
1.0
 17
0.0
 27
0.0
 37
0.0
 40
1791.677127631087
 41
2.19163763066202
 42
50.0
 43
0.0
 44
0.0
 50
0.0
 51
0.0
 71
     0
 72
   100
 73
     1
 74
     1
 75
     0
 76
     1
 77
     0
 78
     0
281
     0
 65
     1
110
0.0
120
0.0
130
0.0
111
1.0
121
0.0
131
0.0
112
0.0
122
1.0
132
0.0
 79
     0
146
0.0
  0
ENDTAB
  0
TABLE
  2
LTYPE
  5
5
330
0
100
AcDbSymbolTable
 70
    56
  0
LTYPE
  5
63
330
5
100
AcDbSymbolTableRecord
100
AcDbLinetypeTableRecord
  2
ByBlock
 70
     0
  3

 72
    65
 73
     0
 40
0.0
  0
LTYPE
  5
64
330
5
100
AcDbSymbolTableRecord
100
AcDbLinetypeTableRecord
  2
ByLayer
 70
     0
  3

 72
    65
 73
     0
 40
0.0
  0
LTYPE
  5
65
330
5
100
AcDbSymbolTableRecord
100
AcDbLinetypeTableRecord
  2
Continuous
 70
     0
  3
Solid line
 72
    65
 73
     0
 40
0.0
  0
LTYPE
  5
86
330
5
100
AcDbSymbolTableRecord
100
AcDbLinetypeTableRecord
  2
Section_View_Lines
 70
     0
  3
Section View Lines
 72
    65
 73
     4
 40
0.8406
 49
0.6614
 74
     0
 49
-0.0827
 74
     0
 49
0.0138
 74
     0
 49
-0.0827
 74
     0
  0
LTYPE
  5
87
330
5
100
AcDbSymbolTableRecord
100
AcDbLinetypeTableRecord
  2
CHAIN
 70
     0
  3
Chain ____ _ ____ _ ____ _ ____ _ ____ _ ____
 72
    65
 73
     4
 40
0.3543
 49
0.2362
 74
     0
 49
-0.0295
 74
     0
 49
0.0591
 74
     0
 49
-0.0295
 74
     0
  0
LTYPE
  5
88
330
5
100
AcDbSymbolTableRecord
100
AcDbLinetypeTableRecord
  2
DASH_DOT
 70
     0
  3
Dash dot _._._._._._._._._._._._._._._.
 72
    65
 73
     4
 40
0.37
 49
0.24
 74
     0
 49
-0.06
 74
     0
 49
0.01
 74
     0
 49
-0.06
 74
     0
  0
LTYPE
  5
89
330
5
100
AcDbSymbolTableRecord
100
AcDbLinetypeTableRecord
  2
DASH_DOUBLE_DOT
 70
     0
  3
Dash Double Dot __ __ . __ __ . __ __ . __ _
 72
    65
 73
     6
 40
0.4398
 49
0.24
 74
     0
 49
-0.06
 74
     0
 49
0.0098
 74
     0
 49
-0.06
 74
     0
 49
0.01
 74
     0
 49
-0.06
 74
     0
  0
LTYPE
  5
8A
330
5
100
AcDbSymbolTableRecord
100
AcDbLinetypeTableRecord
  2
DASH_TRIPLE_DOT
 70
     0
  3
Dash Triple-Dot _ . . . _ . . . _ . . . _
 72
    65
 73
     8
 40
0.51
 49
0.24
 74
     0
 49
-0.06
 74
     0
 49
0.01
 74
     0
 49
-0.06
 74
     0
 49
0.01
 74
     0
 49
-0.06
 74
     0
 49
0.01
 74
     0
 49
-0.06
 74
     0
  0
LTYPE
  5
8B
330
5
100
AcDbSymbolTableRecord
100
AcDbLinetypeTableRecord
  2
DASHED
 70
     0
  3
Dashed __ __ __ __ __ __ __ __ __ __ __ __ __ _
 72
    65
 73
     2
 40
0.2067
 49
0.1654
 74
     0
 49
-0.0413
 74
     0
  0
LTYPE
  5
8C
330
5
100
AcDbSymbolTableRecord
100
AcDbLinetypeTableRecord
  2
DASHED_SPACE
 70
     0
  3
Dashed Space _._._._._._._._._._._._._._._.
 72
    65
 73
     2
 40
0.2067
 49
0.1654
 74
     0
 49
-0.0413
 74
     0
  0
LTYPE
  5
8D
330
5
100
AcDbSymbolTableRecord
100
AcDbLinetypeTableRecord
  2
DOTTED
 70
     0
  3
Dotted . . . . . . . . . . . . . . . . . . . . 
 72
    65
 73
     2
 40
0.0482
 49
0.0069
 74
     0
 49
-0.0413
 74
     0
  0
LTYPE
  5
8E
330
5
100
AcDbSymbolTableRecord
100
AcDbLinetypeTableRecord
  2
DOUBLE_DASH_CHAIN
 70
     0
  3
Double Dash Chain ___ _ _ ___ _ _ ___ _ _ ___ _
 72
    65
 73
     6
 40
1.240299999999999
 49
0.6614
 74
     0
 49
-0.0827
 74
     0
 49
0.1654
 74
     0
 49
-0.0827
 74
     0
 49
0.1654
 74
     0
 49
-0.0827
 74
     0
  0
LTYPE
  5
8F
330
5
100
AcDbSymbolTableRecord
100
AcDbLinetypeTableRecord
  2
DOUBLE_DASH_DOT
 70
     0
  3
Double Dash Dot __ __ . __ __ . __ __ . __ _
 72
    65
 73
     6
 40
0.67
 49
0.24
 74
     0
 49
-0.06
 74
     0
 49
0.24
 74
     0
 49
-0.06
 74
     0
 49
0.01
 74
     0
 49
-0.06
 74
     0
  0
LTYPE
  5
90
330
5
100
AcDbSymbolTableRecord
100
AcDbLinetypeTableRecord
  2
DOUBLE_DASH_DOUBLE_DOT
 70
     0
  3
Double-dash double-dot _ _ . . _ _ . . _
 72
    65
 73
     8
 40
0.7400000000000001
 49
0.24
 74
     0
 49
-0.06
 74
     0
 49
0.24
 74
     0
 49
-0.06
 74
     0
 49
0.01
 74
     0
 49
-0.06
 74
     0
 49
0.01
 74
     0
 49
-0.06
 74
     0
  0
LTYPE
  5
91
330
5
100
AcDbSymbolTableRecord
100
AcDbLinetypeTableRecord
  2
DOUBLE_DASH_TRIPLE_DOT
 70
     0
  3
Double Dash Triple Dot __ __ . . . __ __ . . .
 72
    65
 73
    10
 40
0.8100000000000001
 49
0.24
 74
     0
 49
-0.06
 74
     0
 49
0.24
 74
     0
 49
-0.06
 74
     0
 49
0.01
 74
     0
 49
-0.06
 74
     0
 49
0.01
 74
     0
 49
-0.06
 74
     0
 49
0.01
 74
     0
 49
-0.06
 74
     0
  0
LTYPE
  5
92
330
5
100
AcDbSymbolTableRecord
100
AcDbLinetypeTableRecord
  2
LONG_DASH_DOTTED
 70
     0
  3
Long-Dash Dot ____ . ____ . ____ . ____ . _
 72
    65
 73
     4
 40
0.3001
 49
0.2362
 74
     0
 49
-0.0295
 74
     0
 49
0.0049
 74
     0
 49
-0.0295
 74
     0
  0
LTYPE
  5
93
330
5
100
AcDbSymbolTableRecord
100
AcDbLinetypeTableRecord
  2
LONG_DASH_DOUBLE_DOT
 70
     0
  3
Long Dash Double Dot ____ . . ____ . . ____ . .
 72
    65
 73
     6
 40
0.3345
 49
0.2362
 74
     0
 49
-0.0295
 74
     0
 49
0.0049
 74
     0
 49
-0.0295
 74
     0
 49
0.0049
 74
     0
 49
-0.0295
 74
     0
  0
LTYPE
  5
94
330
5
100
AcDbSymbolTableRecord
100
AcDbLinetypeTableRecord
  2
LONG_DASH_TRIPLE_DOT
 70
     0
  3
Long Dash Triple Dot ____ ... ____ ... ____
 72
    65
 73
     8
 40
0.75
 49
0.48
 74
     0
 49
-0.06
 74
     0
 49
0.01
 74
     0
 49
-0.06
 74
     0
 49
0.01
 74
     0
 49
-0.06
 74
     0
 49
0.01
 74
     0
 49
-0.06
 74
     0
  0
LTYPE
  5
95
330
5
100
AcDbSymbolTableRecord
100
AcDbLinetypeTableRecord
  2
BORDER
 70
     0
  3
Border __ __ . __ __ . __ __ . __ __ . __ __ .
 72
    65
 73
     6
 40
44.45
 49
12.7
 74
     0
 49
-6.349999999999999
 74
     0
 49
12.7
 74
     0
 49
-6.349999999999999
 74
     0
 49
0.0
 74
     0
 49
-6.349999999999999
 74
     0
  0
LTYPE
  5
96
330
5
100
AcDbSymbolTableRecord
100
AcDbLinetypeTableRecord
  2
BORDER2
 70
     0
  3
Border (.5x) __.__.__.__.__.__.__.__.__.__.__.
 72
    65
 73
     6
 40
22.225
 49
6.349999999999999
 74
     0
 49
-3.174999999999999
 74
     0
 49
6.349999999999999
 74
     0
 49
-3.174999999999999
 74
     0
 49
0.0
 74
     0
 49
-3.174999999999999
 74
     0
  0
LTYPE
  5
97
330
5
100
AcDbSymbolTableRecord
100
AcDbLinetypeTableRecord
  2
BORDERX2
 70
     0
  3
Border (2x) ____  ____  .  ____  ____  .  ___
 72
    65
 73
     6
 40
88.9
 49
25.4
 74
     0
 49
-12.7
 74
     0
 49
25.4
 74
     0
 49
-12.7
 74
     0
 49
0.0
 74
     0
 49
-12.7
 74
     0
  0
LTYPE
  5
98
330
5
100
AcDbSymbolTableRecord
100
AcDbLinetypeTableRecord
  2
CENTER
 70
     0
  3
Center ____ _ ____ _ ____ _ ____ _ ____ _ ____
 72
    65
 73
     4
 40
50.8
 49
31.75
 74
     0
 49
-6.349999999999999
 74
     0
 49
6.349999999999999
 74
     0
 49
-6.349999999999999
 74
     0
  0
LTYPE
  5
99
330
5
100
AcDbSymbolTableRecord
100
AcDbLinetypeTableRecord
  2
CENTER2
 70
     0
  3
Center (.5x) ___ _ ___ _ ___ _ ___ _ ___ _ ___
 72
    65
 73
     4
 40
28.575
 49
19.05
 74
     0
 49
-3.174999999999999
 74
     0
 49
3.174999999999999
 74
     0
 49
-3.174999999999999
 74
     0
  0
LTYPE
  5
9A
330
5
100
AcDbSymbolTableRecord
100
AcDbLinetypeTableRecord
  2
CENTERX2
 70
     0
  3
Center (2x) ________  __  ________  __  _____
 72
    65
 73
     4
 40
101.6
 49
63.5
 74
     0
 49
-12.7
 74
     0
 49
12.7
 74
     0
 49
-12.7
 74
     0
  0
LTYPE
  5
9B
330
5
100
AcDbSymbolTableRecord
100
AcDbLinetypeTableRecord
  2
DASHDOT2
 70
     0
  3
Dash dot (.5x) _._._._._._._._._._._._._._._.
 72
    65
 73
     4
 40
12.7
 49
6.349999999999999
 74
     0
 49
-3.174999999999999
 74
     0
 49
0.0
 74
     0
 49
-3.174999999999999
 74
     0
  0
LTYPE
  5
9C
330
5
100
AcDbSymbolTableRecord
100
AcDbLinetypeTableRecord
  2
DASHDOTX2
 70
     0
  3
Dash dot (2x) ____  .  ____  .  ____  .  ___
 72
    65
 73
     4
 40
50.8
 49
25.4
 74
     0
 49
-12.7
 74
     0
 49
0.0
 74
     0
 49
-12.7
 74
     0
  0
LTYPE
  5
9D
330
5
100
AcDbSymbolTableRecord
100
AcDbLinetypeTableRecord
  2
DASHED2
 70
     0
  3
Dashed (.5x) _ _ _ _ _ _ _ _ _ _ _ _ _ _ _ _ _
 72
    65
 73
     2
 40
9.524999999999998
 49
6.349999999999999
 74
     0
 49
-3.174999999999999
 74
     0
  0
LTYPE
  5
9E
330
5
100
AcDbSymbolTableRecord
100
AcDbLinetypeTableRecord
  2
DASHEDX2
 70
     0
  3
Dashed (2x) ____  ____  ____  ____  ____  ___
 72
    65
 73
     2
 40
38.1
 49
25.4
 74
     0
 49
-12.7
 74
     0
  0
LTYPE
  5
9F
330
5
100
AcDbSymbolTableRecord
100
AcDbLinetypeTableRecord
  2
DIVIDE
 70
     0
  3
Divide ____ . . ____ . . ____ . . ____ . . ____
 72
    65
 73
     6
 40
31.75
 49
12.7
 74
     0
 49
-6.349999999999999
 74
     0
 49
0.0
 74
     0
 49
-6.349999999999999
 74
     0
 49
0.0
 74
     0
 49
-6.349999999999999
 74
     0
  0
LTYPE
  5
A0
330
5
100
AcDbSymbolTableRecord
100
AcDbLinetypeTableRecord
  2
DIVIDE2
 70
     0
  3
Divide (.5x) __..__..__..__..__..__..__..__.._
 72
    65
 73
     6
 40
15.875
 49
6.349999999999999
 74
     0
 49
-3.174999999999999
 74
     0
 49
0.0
 74
     0
 49
-3.174999999999999
 74
     0
 49
0.0
 74
     0
 49
-3.174999999999999
 74
     0
  0
LTYPE
  5
A1
330
5
100
AcDbSymbolTableRecord
100
AcDbLinetypeTableRecord
  2
DIVIDEX2
 70
     0
  3
Divide (2x) ________  .  .  ________  .  .  _
 72
    65
 73
     6
 40
63.49999999999999
 49
25.4
 74
     0
 49
-12.7
 74
     0
 49
0.0
 74
     0
 49
-12.7
 74
     0
 49
0.0
 74
     0
 49
-12.7
 74
     0
  0
LTYPE
  5
A2
330
5
100
AcDbSymbolTableRecord
100
AcDbLinetypeTableRecord
  2
DOT
 70
     0
  3
Dot . . . . . . . . . . . . . . . . . . . . . .
 72
    65
 73
     2
 40
6.349999999999999
 49
0.0
 74
     0
 49
-6.349999999999999
 74
     0
  0
LTYPE
  5
A3
330
5
100
AcDbSymbolTableRecord
100
AcDbLinetypeTableRecord
  2
DOT2
 70
     0
  3
Dot (.5x) .....................................
 72
    65
 73
     2
 40
3.174999999999999
 49
0.0
 74
     0
 49
-3.174999999999999
 74
     0
  0
LTYPE
  5
A4
330
5
100
AcDbSymbolTableRecord
100
AcDbLinetypeTableRecord
  2
DOTX2
 70
     0
  3
Dot (2x) .  .  .  .  .  .  .  .  .  .  .  .  . 
 72
    65
 73
     2
 40
12.7
 49
0.0
 74
     0
 49
-12.7
 74
     0
  0
LTYPE
  5
A5
330
5
100
AcDbSymbolTableRecord
100
AcDbLinetypeTableRecord
  2
HIDDEN
 70
     0
  3
Hidden __ __ __ __ __ __ __ __ __ __ __ __ __ _
 72
    65
 73
     2
 40
9.524999999999998
 49
6.349999999999999
 74
     0
 49
-3.174999999999999
 74
     0
  0
LTYPE
  5
A6
330
5
100
AcDbSymbolTableRecord
100
AcDbLinetypeTableRecord
  2
HIDDEN2
 70
     0
  3
Hidden (.5x) _ _ _ _ _ _ _ _ _ _ _ _ _ _ _ _ _
 72
    65
 73
     2
 40
4.762499999999999
 49
3.174999999999999
 74
     0
 49
-1.587499999999999
 74
     0
  0
LTYPE
  5
A7
330
5
100
AcDbSymbolTableRecord
100
AcDbLinetypeTableRecord
  2
HIDDENX2
 70
     0
  3
Hidden (2x) ____ ____ ____ ____ ____ ____ ____
 72
    65
 73
     2
 40
19.05
 49
12.7
 74
     0
 49
-6.349999999999999
 74
     0
  0
LTYPE
  5
A8
330
5
100
AcDbSymbolTableRecord
100
AcDbLinetypeTableRecord
  2
PHANTOM
 70
     0
  3
Phantom ______  __  __  ______  __  __  ______
 72
    65
 73
     6
 40
63.5
 49
31.75
 74
     0
 49
-6.349999999999999
 74
     0
 49
6.349999999999999
 74
     0
 49
-6.349999999999999
 74
     0
 49
6.349999999999999
 74
     0
 49
-6.349999999999999
 74
     0
  0
LTYPE
  5
A9
330
5
100
AcDbSymbolTableRecord
100
AcDbLinetypeTableRecord
  2
PHANTOM2
 70
     0
  3
Phantom (.5x) ___ _ _ ___ _ _ ___ _ _ ___ _ _
 72
    65
 73
     6
 40
31.75
 49
15.875
 74
     0
 49
-3.174999999999999
 74
     0
 49
3.174999999999999
 74
     0
 49
-3.174999999999999
 74
     0
 49
3.174999999999999
 74
     0
 49
-3.174999999999999
 74
     0
  0
LTYPE
  5
AA
330
5
100
AcDbSymbolTableRecord
100
AcDbLinetypeTableRecord
  2
PHANTOMX2
 70
     0
  3
Phantom (2x) ____________    ____    ____   _
 72
    65
 73
     6
 40
127.0
 49
63.5
 74
     0
 49
-12.7
 74
     0
 49
12.7
 74
     0
 49
-12.7
 74
     0
 49
12.7
 74
     0
 49
-12.7
 74
     0
  0
LTYPE
  5
AB
330
5
100
AcDbSymbolTableRecord
100
AcDbLinetypeTableRecord
  2
ACAD_ISO02W100
 70
     0
  3
ISO dash __ __ __ __ __ __ __ __ __ __ __ __ __
 72
    65
 73
     2
 40
15.0
 49
12.0
 74
     0
 49
-3.0
 74
     0
  0
LTYPE
  5
AC
330
5
100
AcDbSymbolTableRecord
100
AcDbLinetypeTableRecord
  2
ACAD_ISO03W100
 70
     0
  3
ISO dash space __    __    __    __    __    __
 72
    65
 73
     2
 40
30.0
 49
12.0
 74
     0
 49
-18.0
 74
     0
  0
LTYPE
  5
AD
330
5
100
AcDbSymbolTableRecord
100
AcDbLinetypeTableRecord
  2
ACAD_ISO04W100
 70
     0
  3
ISO long-dash dot ____ . ____ . ____ . ____ . _
 72
    65
 73
     4
 40
30.0
 49
24.0
 74
     0
 49
-3.0
 74
     0
 49
0.0
 74
     0
 49
-3.0
 74
     0
  0
LTYPE
  5
AE
330
5
100
AcDbSymbolTableRecord
100
AcDbLinetypeTableRecord
  2
ACAD_ISO05W100
 70
     0
  3
ISO long-dash double-dot ____ .. ____ .. ____ .
 72
    65
 73
     6
 40
33.0
 49
24.0
 74
     0
 49
-3.0
 74
     0
 49
0.0
 74
     0
 49
-3.0
 74
     0
 49
0.0
 74
     0
 49
-3.0
 74
     0
  0
LTYPE
  5
AF
330
5
100
AcDbSymbolTableRecord
100
AcDbLinetypeTableRecord
  2
ACAD_ISO06W100
 70
     0
  3
ISO long-dash triple-dot ____ ... ____ ... ____
 72
    65
 73
     8
 40
36.0
 49
24.0
 74
     0
 49
-3.0
 74
     0
 49
0.0
 74
     0
 49
-3.0
 74
     0
 49
0.0
 74
     0
 49
-3.0
 74
     0
 49
0.0
 74
     0
 49
-3.0
 74
     0
  0
LTYPE
  5
B0
330
5
100
AcDbSymbolTableRecord
100
AcDbLinetypeTableRecord
  2
ACAD_ISO07W100
 70
     0
  3
ISO dot . . . . . . . . . . . . . . . . . . . .
 72
    65
 73
     2
 40
3.0
 49
0.0
 74
     0
 49
-3.0
 74
     0
  0
LTYPE
  5
B1
330
5
100
AcDbSymbolTableRecord
100
AcDbLinetypeTableRecord
  2
ACAD_ISO08W100
 70
     0
  3
ISO long-dash short-dash ____ __ ____ __ ____ _
 72
    65
 73
     4
 40
36.0
 49
24.0
 74
     0
 49
-3.0
 74
     0
 49
6.0
 74
     0
 49
-3.0
 74
     0
  0
LTYPE
  5
B2
330
5
100
AcDbSymbolTableRecord
100
AcDbLinetypeTableRecord
  2
ACAD_ISO09W100
 70
     0
  3
ISO long-dash double-short-dash ____ __ __ ____
 72
    65
 73
     6
 40
45.0
 49
24.0
 74
     0
 49
-3.0
 74
     0
 49
6.0
 74
     0
 49
-3.0
 74
     0
 49
6.0
 74
     0
 49
-3.0
 74
     0
  0
LTYPE
  5
B3
330
5
100
AcDbSymbolTableRecord
100
AcDbLinetypeTableRecord
  2
ACAD_ISO10W100
 70
     0
  3
ISO dash dot __ . __ . __ . __ . __ . __ . __ .
 72
    65
 73
     4
 40
18.0
 49
12.0
 74
     0
 49
-3.0
 74
     0
 49
0.0
 74
     0
 49
-3.0
 74
     0
  0
LTYPE
  5
B4
330
5
100
AcDbSymbolTableRecord
100
AcDbLinetypeTableRecord
  2
ACAD_ISO11W100
 70
     0
  3
ISO double-dash dot __ __ . __ __ . __ __ . __ 
 72
    65
 73
     6
 40
33.0
 49
12.0
 74
     0
 49
-3.0
 74
     0
 49
12.0
 74
     0
 49
-3.0
 74
     0
 49
0.0
 74
     0
 49
-3.0
 74
     0
  0
LTYPE
  5
B5
330
5
100
AcDbSymbolTableRecord
100
AcDbLinetypeTableRecord
  2
ACAD_ISO12W100
 70
     0
  3
ISO dash double-dot __ . . __ . . __ . . __ . .
 72
    65
 73
     6
 40
21.0
 49
12.0
 74
     0
 49
-3.0
 74
     0
 49
0.0
 74
     0
 49
-3.0
 74
     0
 49
0.0
 74
     0
 49
-3.0
 74
     0
  0
LTYPE
  5
B6
330
5
100
AcDbSymbolTableRecord
100
AcDbLinetypeTableRecord
  2
ACAD_ISO13W100
 70
     0
  3
ISO double-dash double-dot __ __ . . __ __ . . 
 72
    65
 73
     8
 40
36.0
 49
12.0
 74
     0
 49
-3.0
 74
     0
 49
12.0
 74
     0
 49
-3.0
 74
     0
 49
0.0
 74
     0
 49
-3.0
 74
     0
 49
0.0
 74
     0
 49
-3.0
 74
     0
  0
LTYPE
  5
B7
330
5
100
AcDbSymbolTableRecord
100
AcDbLinetypeTableRecord
  2
ACAD_ISO14W100
 70
     0
  3
ISO dash triple-dot __ . . . __ . . . __ . . . 
 72
    65
 73
     8
 40
24.0
 49
12.0
 74
     0
 49
-3.0
 74
     0
 49
0.0
 74
     0
 49
-3.0
 74
     0
 49
0.0
 74
     0
 49
-3.0
 74
     0
 49
0.0
 74
     0
 49
-3.0
 74
     0
  0
LTYPE
  5
B8
330
5
100
AcDbSymbolTableRecord
100
AcDbLinetypeTableRecord
  2
ACAD_ISO15W100
 70
     0
  3
ISO double-dash triple-dot __ __ . . . __ __ . 
 72
    65
 73
    10
 40
39.0
 49
12.0
 74
     0
 49
-3.0
 74
     0
 49
12.0
 74
     0
 49
-3.0
 74
     0
 49
0.0
 74
     0
 49
-3.0
 74
     0
 49
0.0
 74
     0
 49
-3.0
 74
     0
 49
0.0
 74
     0
 49
-3.0
 74
     0
  0
LTYPE
  5
BB
330
5
100
AcDbSymbolTableRecord
100
AcDbLinetypeTableRecord
  2
FENCELINE1
 70
     0
  3
Fenceline circle ----0-----0----0-----0----0---
 72
    65
 73
     4
 40
36.83
 49
6.349999999999999
 74
     0
 49
-2.54
 74
     4
 75
   133
340
BA
 46
2.54
 50
0.0
 44
-2.54
 45
0.0
 49
-2.54
 74
     0
 49
25.4
 74
     0
  0
LTYPE
  5
BC
330
5
100
AcDbSymbolTableRecord
100
AcDbLinetypeTableRecord
  2
FENCELINE2
 70
     0
  3
Fenceline square ----[]-----[]----[]-----[]----
 72
    65
 73
     4
 40
36.83
 49
6.349999999999999
 74
     0
 49
-2.54
 74
     4
 75
   132
340
BA
 46
2.54
 50
0.0
 44
-2.54
 45
0.0
 49
-2.54
 74
     0
 49
25.4
 74
     0
  0
LTYPE
  5
BD
330
5
100
AcDbSymbolTableRecord
100
AcDbLinetypeTableRecord
  2
TRACKS
 70
     0
  3
Tracks -|-|-|-|-|-|-|-|-|-|-|-|-|-|-|-|-|-|-|-|
 72
    65
 73
     2
 40
7.62
 49
3.81
 74
     4
 75
   130
340
BA
 46
6.349999999999999
 50
0.0
 44
0.0
 45
0.0
 49
3.81
 74
     0
  0
LTYPE
  5
BE
330
5
100
AcDbSymbolTableRecord
100
AcDbLinetypeTableRecord
  2
BATTING
 70
     0
  3
Batting SSSSSSSSSSSSSSSSSSSSSSSSSSSSSSSSSSSSSSS
 72
    65
 73
     4
 40
10.16254
 49
0.00254
 74
     0
 49
-2.54
 74
     4
 75
   134
340
BA
 46
2.54
 50
0.0
 44
-2.54
 45
0.0
 49
-5.08
 74
     4
 75
   134
340
BA
 46
2.54
 50
180.0
 44
2.54
 45
0.0
 49
-2.54
 74
     0
  0
ENDTAB
  0
TABLE
  2
LAYER
  5
2
330
0
100
AcDbSymbolTable
 70
     4
  0
LAYER
  5
5C
330
2
100
AcDbSymbolTableRecord
100
AcDbLayerTableRecord
  2
0
 70
     0
 62
     7
  6
Continuous
370
    -3
390
F
  0
LAYER
  5
CB
330
2
100
AcDbSymbolTableRecord
100
AcDbLayerTableRecord
  2
Rahmen (ISO)
 70
     0
 62
     7
  6
Continuous
370
    70
390
F
  0
LAYER
  5
CF
330
2
100
AcDbSymbolTableRecord
100
AcDbLayerTableRecord
  2
Sichtbar (ISO)
 70
     0
 62
     7
  6
Continuous
370
    50
390
F
  0
LAYER
  5
D3
330
2
100
AcDbSymbolTableRecord
100
AcDbLayerTableRecord
  2
Titel (ISO)
 70
     0
 62
     7
  6
Continuous
370
    50
390
F
  0
ENDTAB
  0
TABLE
  2
STYLE
  5
3
330
0
100
AcDbSymbolTable
 70
    15
  0
STYLE
  5
5D
330
3
100
AcDbSymbolTableRecord
100
AcDbTextStyleTableRecord
  2
Norm
 70
     0
 40
0.0
 41
1.0
 50
0.0
 71
     0
 42
0.2
  3
txt
  4

  0
STYLE
  5
62
330
3
100
AcDbSymbolTableRecord
100
AcDbTextStyleTableRecord
  2
Annotative
 70
     0
 40
0.0
 41
1.0
 50
0.0
 71
     0
 42
0.2
  3
txt
  4

1001
AcadAnnotative
1000
AnnotativeData
1002
{
1070
     1
1070
     1
1002
}
  0
STYLE
  5
BA
330
3
100
AcDbSymbolTableRecord
100
AcDbTextStyleTableRecord
  2

 70
     1
 40
0.0
 41
1.0
 50
0.0
 71
     0
 42
0.2
  3
ltypeshp.shx
  4

  0
STYLE
  5
D7
330
3
100
AcDbSymbolTableRecord
100
AcDbTextStyleTableRecord
  2
Alternativer Text (GOST)
 70
     0
 40
0.0
 41
0.8000000119209289
 50
0.0
 71
     0
 42
0.2
  3
ARIAL.TTF
  4

1001
ACAD
1000
Arial
1071
      256
  0
STYLE
  5
D8
330
3
100
AcDbSymbolTableRecord
100
AcDbTextStyleTableRecord
  2
Bezeichnungstext (ANSI)
 70
     0
 40
0.0
 41
1.0
 50
0.0
 71
     0
 42
0.2
  3
TAHOMA.TTF
  4

1001
ACAD
1000
Tahoma
1071
      256
  0
STYLE
  5
D9
330
3
100
AcDbSymbolTableRecord
100
AcDbTextStyleTableRecord
  2
Bezeichnungstext (DIN)
 70
     0
 40
0.0
 41
1.0
 50
0.0
 71
     0
 42
0.2
  3
isocpeur.ttf
  4

1001
ACAD
1000
ISOCPEUR
1071
      256
  0
STYLE
  5
DA
330
3
100
AcDbSymbolTableRecord
100
AcDbTextStyleTableRecord
  2
Bezeichnungstext (ISO)
 70
     0
 40
0.0
 41
1.0
 50
0.0
 71
     0
 42
0.2
  3
TAHOMA.TTF
  4

1001
ACAD
1000
Tahoma
1071
      256
  0
STYLE
  5
DB
330
3
100
AcDbSymbolTableRecord
100
AcDbTextStyleTableRecord
  2
Bezeichnungstext (JIS)
 70
     0
 40
0.0
 41
1.0
 50
0.0
 71
     0
 42
0.2
  3
TAHOMA.TTF
  4

1001
ACAD
1000
Tahoma
1071
      256
  0
STYLE
  5
DC
330
3
100
AcDbSymbolTableRecord
100
AcDbTextStyleTableRecord
  2
Normale Textgröße (GOST)
 70
     0
 40
0.0
 41
1.0
 50
0.0
 71
     0
 42
0.2
  3
GOST Common.ttf
  4

1001
ACAD
1000
GOST Common
1071
      256
  0
STYLE
  5
DD
330
3
100
AcDbSymbolTableRecord
100
AcDbTextStyleTableRecord
  2
Notiztext (ANSI)
 70
     0
 40
0.0
 41
1.0
 50
0.0
 71
     0
 42
0.2
  3
TAHOMA.TTF
  4

1001
ACAD
1000
Tahoma
1071
      256
  0
STYLE
  5
DE
330
3
100
AcDbSymbolTableRecord
100
AcDbTextStyleTableRecord
  2
Notiztext (DIN)
 70
     0
 40
0.0
 41
1.0
 50
0.0
 71
     0
 42
0.2
  3
isocpeur.ttf
  4

1001
ACAD
1000
ISOCPEUR
1071
      256
  0
STYLE
  5
DF
330
3
100
AcDbSymbolTableRecord
100
AcDbTextStyleTableRecord
  2
Notiztext (ISO)
 70
     0
 40
0.0
 41
1.0
 50
0.0
 71
     0
 42
0.2
  3
TAHOMA.TTF
  4

1001
ACAD
1000
Tahoma
1071
      256
  0
STYLE
  5
E0
330
3
100
AcDbSymbolTableRecord
100
AcDbTextStyleTableRecord
  2
Notiztext (JIS)
 70
     0
 40
0.0
 41
1.0
 50
0.0
 71
     0
 42
0.2
  3
TAHOMA.TTF
  4

1001
ACAD
1000
Tahoma
1071
      256
  0
STYLE
  5
E1
330
3
100
AcDbSymbolTableRecord
100
AcDbTextStyleTableRecord
  2
Vergrößerter Text (GOST)
 70
     0
 40
0.0
 41
1.0
 50
0.0
 71
     0
 42
0.2
  3
GOST Common.ttf
  4

1001
ACAD
1000
GOST Common
1071
      256
  0
STYLE
  5
E2
330
3
100
AcDbSymbolTableRecord
100
AcDbTextStyleTableRecord
  2
Verkleinerter Text (GOST)
 70
     0
 40
0.0
 41
0.8000000119209289
 50
0.0
 71
     0
 42
0.2
  3
GOST Common.ttf
  4

1001
ACAD
1000
GOST Common
1071
      256
  0
ENDTAB
  0
TABLE
  2
VIEW
  5
6
330
0
100
AcDbSymbolTable
 70
     1
  0
ENDTAB
  0
TABLE
  2
UCS
  5
7
330
0
100
AcDbSymbolTable
 70
     0
  0
ENDTAB
  0
TABLE
  2
APPID
  5
9
330
0
100
AcDbSymbolTable
 70
     4
  0
APPID
  5
5E
330
9
100
AcDbSymbolTableRecord
100
AcDbRegAppTableRecord
  2
ACAD
 70
     0
  0
APPID
  5
66
330
9
100
AcDbSymbolTableRecord
100
AcDbRegAppTableRecord
  2
AcadAnnotative
 70
     0
  0
APPID
  5
70
330
9
100
AcDbSymbolTableRecord
100
AcDbRegAppTableRecord
  2
ACAD_MLEADERVER
 70
     0
  0
APPID
  5
193
330
9
100
AcDbSymbolTableRecord
100
AcDbRegAppTableRecord
  2
AcadAnnoPO
 70
     0
  0
ENDTAB
  0
TABLE
  2
DIMSTYLE
  5
A
330
0
100
AcDbSymbolTable
 70
    11
100
AcDbDimStyleTable
 71
     0
  0
DIMSTYLE
105
60
330
A
100
AcDbSymbolTableRecord
100
AcDbDimStyleTableRecord
  2
Standard
 70
     0
340
5D
  0
DIMSTYLE
105
61
330
A
100
AcDbSymbolTableRecord
100
AcDbDimStyleTableRecord
  2
Annotative
 70
     0
340
5D
1001
AcadAnnotative
1000
AnnotativeData
1002
{
1070
     1
1070
     1
1002
}
  0
DIMSTYLE
105
E3
330
A
100
AcDbSymbolTableRecord
100
AcDbDimStyleTableRecord
  2
Standard - Methode 2a (DIN)
 70
     0
 40
5.0
 41
2.5
 42
0.8
 43
5.999999999999999
 44
3.174999999999999
 45
0.00000001
 46
10.0
 77
     1
 78
     8
 79
     2
140
3.5
143
0.03937
147
0.8
170
     1
171
     3
172
     1
176
   256
177
   256
178
   256
179
     2
271
     2
272
     2
274
     3
278
    44
284
     8
286
     8
340
DE
371
    -1
372
    -1
  0
DIMSTYLE
105
E4
330
A
100
AcDbSymbolTableRecord
100
AcDbDimStyleTableRecord
  2
Standard - Methode 2a (DIN)$7
 70
     0
 40
5.0
 41
2.5
 42
0.8
 43
5.999999999999999
 44
3.174999999999999
 45
0.00000001
 46
10.0
 77
     1
 78
     8
 79
     2
140
3.5
143
0.03937
147
0.8
170
     1
171
     3
172
     1
176
   256
177
   256
178
   256
179
     2
271
     2
272
     2
274
     3
278
    44
284
     8
286
     8
340
DE
371
    -1
372
    -1
  0
DIMSTYLE
105
E5
330
A
100
AcDbSymbolTableRecord
100
AcDbDimStyleTableRecord
  2
Standard - Methode 2b (DIN)
 70
     0
 40
5.0
 41
2.5
 42
0.0
 43
5.999999999999999
 44
3.174999999999999
 45
0.00000001
 46
10.0
 77
     1
 78
     8
 79
     2
140
3.5
143
0.03937
147
0.8
171
     3
172
     1
176
   256
177
   256
178
   256
271
     2
272
     2
274
     3
278
    44
284
     8
286
     8
340
DE
371
    -1
372
    -1
  0
DIMSTYLE
105
E6
330
A
100
AcDbSymbolTableRecord
100
AcDbDimStyleTableRecord
  2
Standard - Methode 2b (DIN)$7
 70
     0
 40
5.0
 41
2.5
 42
0.0
 43
5.999999999999999
 44
3.174999999999999
 45
0.00000001
 46
10.0
 77
     1
 78
     8
 79
     2
140
3.5
143
0.03937
147
0.8
171
     3
172
     1
176
   256
177
   256
178
   256
271
     2
272
     2
274
     3
278
    44
284
     8
286
     8
340
DE
371
    -1
372
    -1
  0
DIMSTYLE
105
E7
330
A
100
AcDbSymbolTableRecord
100
AcDbDimStyleTableRecord
  2
Standard (DIN)
 70
     0
 40
5.0
 41
2.5
 42
0.8
 43
5.999999999999999
 44
3.174999999999999
 45
0.00000001
 46
10.0
 73
     0
 74
     0
 77
     1
140
3.5
143
0.03937
147
0.8
171
     3
172
     1
176
   256
177
   256
178
   256
271
     2
272
     2
274
     3
278
    44
340
DE
371
    -1
372
    -1
  0
DIMSTYLE
105
E8
330
A
100
AcDbSymbolTableRecord
100
AcDbDimStyleTableRecord
  2
Standard (DIN)$7
 70
     0
 40
5.0
 41
2.5
 42
0.8
 43
5.999999999999999
 44
3.174999999999999
 45
0.00000001
 46
10.0
 73
     0
 74
     0
 77
     1
140
3.5
143
0.03937
147
0.8
171
     3
172
     1
176
   256
177
   256
178
   256
271
     2
272
     2
274
     3
278
    44
340
DE
371
    -1
372
    -1
  0
DIMSTYLE
105
E9
330
A
100
AcDbSymbolTableRecord
100
AcDbDimStyleTableRecord
  2
Alternativ (ISO)
 70
     0
 40
5.0
 41
2.5
340
5D
342
EA
  0
DIMSTYLE
105
FB
330
A
100
AcDbSymbolTableRecord
100
AcDbDimStyleTableRecord
  2
Bezug (ISO)
 70
     0
 40
5.0
 41
2.5
340
5D
342
EA
  0
DIMSTYLE
105
10A
330
A
100
AcDbSymbolTableRecord
100
AcDbDimStyleTableRecord
  2
Groß (ISO)
 70
     0
 40
5.0
 41
5.0
340
5D
342
EA
  0
ENDTAB
  0
TABLE
  2
BLOCK_RECORD
  5
1
330
0
100
AcDbSymbolTable
 70
     6
  0
BLOCK_RECORD
  5
75
330
1
100
AcDbSymbolTableRecord
100
AcDbBlockTableRecord
  2
*Model_Space
340
78
  0
BLOCK_RECORD
  5
71
330
1
100
AcDbSymbolTableRecord
100
AcDbBlockTableRecord
  2
*Paper_Space
340
74
  0
BLOCK_RECORD
  5
79
330
1
100
AcDbSymbolTableRecord
100
AcDbBlockTableRecord
  2
*Paper_Space0
340
7C
  0
BLOCK_RECORD
  5
EA
330
1
100
AcDbSymbolTableRecord
100
AcDbBlockTableRecord
  2
_Closed
340
0
  0
BLOCK_RECORD
  5
F1
330
1
100
AcDbSymbolTableRecord
100
AcDbBlockTableRecord
  2
DatumFilled45
340
0
  0
BLOCK_RECORD
  5
FC
330
1
100
AcDbSymbolTableRecord
100
AcDbBlockTableRecord
  2
Filled-1
340
0
  0
BLOCK_RECORD
  5
10B
330
1
100
AcDbSymbolTableRecord
100
AcDbBlockTableRecord
  2
Ränder Default Border
340
0
  0
BLOCK_RECORD
  5
163
330
1
100
AcDbSymbolTableRecord
100
AcDbBlockTableRecord
  2
Schriftfelder DIN
340
0
  0
ENDTAB
  0
ENDSEC
  0
SECTION
  2
BLOCKS
  0
BLOCK
  5
76
330
75
100
AcDbEntity
  8
0
100
AcDbBlockBegin
  2
*Model_Space
 70
     0
 10
0.0
 20
0.0
 30
0.0
  3
*Model_Space
  1

  0
ENDBLK
  5
77
330
75
100
AcDbEntity
  8
0
100
AcDbBlockEnd
  0
BLOCK
  5
72
330
71
100
AcDbEntity
 67
     1
  8
0
100
AcDbBlockBegin
  2
*Paper_Space
 70
     0
 10
0.0
 20
0.0
 30
0.0
  3
*Paper_Space
  1

  0
ENDBLK
  5
73
330
71
100
AcDbEntity
 67
     1
  8
0
100
AcDbBlockEnd
  0
BLOCK
  5
7A
330
79
100
AcDbEntity
 67
     1
  8
0
100
AcDbBlockBegin
  2
*Paper_Space0
 70
     0
 10
0.0
 20
0.0
 30
0.0
  3
*Paper_Space0
  1

  0
ENDBLK
  5
7B
330
79
100
AcDbEntity
 67
     1
  8
0
100
AcDbBlockEnd
  0
BLOCK
  5
EF
330
EA
100
AcDbEntity
  8
0
100
AcDbBlockBegin
  2
_Closed
 70
     0
 10
0.0
 20
0.0
 30
0.0
  3
_Closed
  1

  0
LINE
  5
EB
330
EA
100
AcDbEntity
  8
0
  6
ByBlock
 62
     0
370
    -2
100
AcDbLine
 10
-1.0
 20
0.1666666666666666
 30
0.0
 11
0.0
 21
0.0
 31
0.0
  0
LINE
  5
EC
330
EA
100
AcDbEntity
  8
0
  6
ByBlock
 62
     0
370
    -2
100
AcDbLine
 10
0.0
 20
0.0
 30
0.0
 11
-1.0
 21
-0.1666666666666666
 31
0.0
  0
LINE
  5
ED
330
EA
100
AcDbEntity
  8
0
  6
ByBlock
 62
     0
370
    -2
100
AcDbLine
 10
-1.0
 20
0.1666666666666666
 30
0.0
 11
-1.0
 21
-0.1666666666666666
 31
0.0
  0
LINE
  5
EE
330
EA
100
AcDbEntity
  8
0
  6
ByBlock
 62
     0
370
    -2
100
AcDbLine
 10
0.0
 20
0.0
 30
0.0
 11
-1.0
 21
0.0
 31
0.0
  0
ENDBLK
  5
F0
330
EA
100
AcDbEntity
  8
0
100
AcDbBlockEnd
  0
BLOCK
  5
F2
330
F1
100
AcDbEntity
  8
0
100
AcDbBlockBegin
  2
DatumFilled45
 70
     0
 10
0.0
 20
0.0
 30
0.0
  3
DatumFilled45
  1

  0
POLYLINE
  5
F4
330
F1
100
AcDbEntity
  8
0
 62
     0
100
AcDb2dPolyline
 66
     1
 10
0.0
 20
0.0
 30
0.0
 70
   128
  0
VERTEX
  5
F5
330
F4
100
AcDbEntity
  8
0
 62
     0
100
AcDbVertex
100
AcDb2dVertex
 10
0.0
 20
1.0
 30
0.0
  0
VERTEX
  5
F6
330
F4
100
AcDbEntity
  8
0
 62
     0
100
AcDbVertex
100
AcDb2dVertex
 10
0.0
 20
-1.0
 30
0.0
  0
VERTEX
  5
F8
330
F4
100
AcDbEntity
  8
0
 62
     0
100
AcDbVertex
100
AcDb2dVertex
 10
-1.0
 20
0.0
 30
0.0
  0
VERTEX
  5
F9
330
F4
100
AcDbEntity
  8
0
 62
     0
100
AcDbVertex
100
AcDb2dVertex
 10
0.0
 20
1.0
 30
0.0
  0
SEQEND
  5
F7
330
F4
100
AcDbEntity
  8
0
 62
     0
  0
SOLID
  5
FA
330
F1
100
AcDbEntity
  8
0
 62
     0
100
AcDbTrace
 10
0.0
 20
1.0
 30
0.0
 11
0.0
 21
-1.0
 31
0.0
 12
-1.0
 22
0.0
 32
0.0
 13
0.0
 23
1.0
 33
0.0
  0
ENDBLK
  5
F3
330
F1
100
AcDbEntity
  8
0
100
AcDbBlockEnd
  0
BLOCK
  5
FD
330
FC
100
AcDbEntity
  8
0
100
AcDbBlockBegin
  2
Filled-1
 70
     0
 10
0.0
 20
0.0
 30
0.0
  3
Filled-1
  1

  0
LINE
  5
FF
330
FC
100
AcDbEntity
  8
0
 62
     0
100
AcDbLine
 10
-1.0
 20
0.0
 30
0.0
 11
0.0
 21
0.0
 31
0.0
  0
POLYLINE
  5
100
330
FC
100
AcDbEntity
  8
0
 62
     0
100
AcDb2dPolyline
 66
     1
 10
0.0
 20
0.0
 30
0.0
 70
   128
  0
VERTEX
  5
101
330
100
100
AcDbEntity
  8
0
 62
     0
100
AcDbVertex
100
AcDb2dVertex
 10
-1.0
 20
-0.1
 30
0.0
  0
VERTEX
  5
102
330
100
100
AcDbEntity
  8
0
 62
     0
100
AcDbVertex
100
AcDb2dVertex
 10
0.0
 20
0.0
 30
0.0
  0
VERTEX
  5
104
330
100
100
AcDbEntity
  8
0
 62
     0
100
AcDbVertex
100
AcDb2dVertex
 10
-1.0
 20
0.1
 30
0.0
  0
VERTEX
  5
105
330
100
100
AcDbEntity
  8
0
 62
     0
100
AcDbVertex
100
AcDb2dVertex
 10
-1.0
 20
-0.1
 30
0.0
  0
SEQEND
  5
103
330
100
100
AcDbEntity
  8
0
 62
     0
  0
SOLID
  5
106
330
FC
100
AcDbEntity
  8
0
 62
     0
100
AcDbTrace
 10
-1.0
 20
-0.1
 30
0.0
 11
0.0
 21
0.0
 31
0.0
 12
-1.0
 22
0.1
 32
0.0
 13
-1.0
 23
-0.1
 33
0.0
  0
LINE
  5
107
330
FC
100
AcDbEntity
  8
0
 62
     0
100
AcDbLine
 10
-1.0
 20
-0.1
 30
0.0
 11
0.0
 21
0.0
 31
0.0
  0
LINE
  5
108
330
FC
100
AcDbEntity
  8
0
 62
     0
100
AcDbLine
 10
0.0
 20
0.0
 30
0.0
 11
-1.0
 21
0.1
 31
0.0
  0
LINE
  5
109
330
FC
100
AcDbEntity
  8
0
 62
     0
100
AcDbLine
 10
-1.0
 20
0.1
 30
0.0
 11
-1.0
 21
-0.1
 31
0.0
  0
ENDBLK
  5
FE
330
FC
100
AcDbEntity
  8
0
100
AcDbBlockEnd
  0
BLOCK
  5
10C
330
10B
100
AcDbEntity
  8
0
100
AcDbBlockBegin
  2
Ränder Default Border
 70
     0
 10
0.0
 20
0.0
 30
0.0
  3
Ränder Default Border
  1

  0
POLYLINE
  5
10E
330
10B
100
AcDbEntity
  8
Rahmen (ISO)
100
AcDb2dPolyline
 66
     1
 10
0.0
 20
0.0
 30
0.0
 70
   128
  0
VERTEX
  5
10F
330
10E
100
AcDbEntity
  8
Rahmen (ISO)
100
AcDbVertex
100
AcDb2dVertex
 10
10.0
 20
10.0
 30
0.0
  0
VERTEX
  5
110
330
10E
100
AcDbEntity
  8
Rahmen (ISO)
100
AcDbVertex
100
AcDb2dVertex
 10
10.0
 20
410.0
 30
0.0
  0
VERTEX
  5
112
330
10E
100
AcDbEntity
  8
Rahmen (ISO)
100
AcDbVertex
100
AcDb2dVertex
 10
584.000015258789
 20
410.0
 30
0.0
  0
VERTEX
  5
113
330
10E
100
AcDbEntity
  8
Rahmen (ISO)
100
AcDbVertex
100
AcDb2dVertex
 10
584.000015258789
 20
10.0
 30
0.0
  0
VERTEX
  5
114
330
10E
100
AcDbEntity
  8
Rahmen (ISO)
100
AcDbVertex
100
AcDb2dVertex
 10
10.0
 20
10.0
 30
0.0
  0
SEQEND
  5
111
330
10E
100
AcDbEntity
  8
Rahmen (ISO)
  0
POLYLINE
  5
115
330
10B
100
AcDbEntity
  8
Rahmen (ISO)
100
AcDb2dPolyline
 66
     1
 10
0.0
 20
0.0
 30
0.0
 70
   128
  0
VERTEX
  5
116
330
115
100
AcDbEntity
  8
Rahmen (ISO)
100
AcDbVertex
100
AcDb2dVertex
 10
297.0000076293946
 20
0.0
 30
0.0
  0
VERTEX
  5
117
330
115
100
AcDbEntity
  8
Rahmen (ISO)
100
AcDbVertex
100
AcDb2dVertex
 10
297.0000076293946
 20
10.0
 30
0.0
  0
VERTEX
  5
119
330
115
100
AcDbEntity
  8
Rahmen (ISO)
100
AcDbVertex
100
AcDb2dVertex
 10
294.1132545471191
 20
5.0
 30
0.0
  0
VERTEX
  5
11A
330
115
100
AcDbEntity
  8
Rahmen (ISO)
100
AcDbVertex
100
AcDb2dVertex
 10
299.8867607116699
 20
5.0
 30
0.0
  0
VERTEX
  5
11B
330
115
100
AcDbEntity
  8
Rahmen (ISO)
100
AcDbVertex
100
AcDb2dVertex
 10
297.0000076293946
 20
10.0
 30
0.0
  0
SEQEND
  5
118
330
115
100
AcDbEntity
  8
Rahmen (ISO)
  0
POLYLINE
  5
11C
330
10B
100
AcDbEntity
  8
Rahmen (ISO)
100
AcDb2dPolyline
 66
     1
 10
0.0
 20
0.0
 30
0.0
 70
   128
  0
VERTEX
  5
11D
330
11C
100
AcDbEntity
  8
Rahmen (ISO)
100
AcDbVertex
100
AcDb2dVertex
 10
297.0000076293946
 20
420.0
 30
0.0
  0
VERTEX
  5
11E
330
11C
100
AcDbEntity
  8
Rahmen (ISO)
100
AcDbVertex
100
AcDb2dVertex
 10
297.0000076293946
 20
410.0
 30
0.0
  0
VERTEX
  5
120
330
11C
100
AcDbEntity
  8
Rahmen (ISO)
100
AcDbVertex
100
AcDb2dVertex
 10
294.1132545471191
 20
415.0
 30
0.0
  0
VERTEX
  5
121
330
11C
100
AcDbEntity
  8
Rahmen (ISO)
100
AcDbVertex
100
AcDb2dVertex
 10
299.8867607116699
 20
415.0
 30
0.0
  0
VERTEX
  5
122
330
11C
100
AcDbEntity
  8
Rahmen (ISO)
100
AcDbVertex
100
AcDb2dVertex
 10
297.0000076293946
 20
410.0
 30
0.0
  0
SEQEND
  5
11F
330
11C
100
AcDbEntity
  8
Rahmen (ISO)
  0
POLYLINE
  5
123
330
10B
100
AcDbEntity
  8
Rahmen (ISO)
100
AcDb2dPolyline
 66
     1
 10
0.0
 20
0.0
 30
0.0
 70
   128
  0
VERTEX
  5
124
330
123
100
AcDbEntity
  8
Rahmen (ISO)
100
AcDbVertex
100
AcDb2dVertex
 10
0.0
 20
210.0
 30
0.0
  0
VERTEX
  5
125
330
123
100
AcDbEntity
  8
Rahmen (ISO)
100
AcDbVertex
100
AcDb2dVertex
 10
10.0
 20
210.0
 30
0.0
  0
VERTEX
  5
127
330
123
100
AcDbEntity
  8
Rahmen (ISO)
100
AcDbVertex
100
AcDb2dVertex
 10
5.0
 20
212.8867530822754
 30
0.0
  0
VERTEX
  5
128
330
123
100
AcDbEntity
  8
Rahmen (ISO)
100
AcDbVertex
100
AcDb2dVertex
 10
5.0
 20
207.1132469177246
 30
0.0
  0
VERTEX
  5
129
330
123
100
AcDbEntity
  8
Rahmen (ISO)
100
AcDbVertex
100
AcDb2dVertex
 10
10.0
 20
210.0
 30
0.0
  0
SEQEND
  5
126
330
123
100
AcDbEntity
  8
Rahmen (ISO)
  0
POLYLINE
  5
12A
330
10B
100
AcDbEntity
  8
Rahmen (ISO)
100
AcDb2dPolyline
 66
     1
 10
0.0
 20
0.0
 30
0.0
 70
   128
  0
VERTEX
  5
12B
330
12A
100
AcDbEntity
  8
Rahmen (ISO)
100
AcDbVertex
100
AcDb2dVertex
 10
594.0000152587891
 20
210.0
 30
0.0
  0
VERTEX
  5
12C
330
12A
100
AcDbEntity
  8
Rahmen (ISO)
100
AcDbVertex
100
AcDb2dVertex
 10
584.000015258789
 20
210.0
 30
0.0
  0
VERTEX
  5
12E
330
12A
100
AcDbEntity
  8
Rahmen (ISO)
100
AcDbVertex
100
AcDb2dVertex
 10
589.000015258789
 20
212.8867530822754
 30
0.0
  0
VERTEX
  5
12F
330
12A
100
AcDbEntity
  8
Rahmen (ISO)
100
AcDbVertex
100
AcDb2dVertex
 10
589.000015258789
 20
207.1132469177246
 30
0.0
  0
VERTEX
  5
130
330
12A
100
AcDbEntity
  8
Rahmen (ISO)
100
AcDbVertex
100
AcDb2dVertex
 10
584.000015258789
 20
210.0
 30
0.0
  0
SEQEND
  5
12D
330
12A
100
AcDbEntity
  8
Rahmen (ISO)
  0
LINE
  5
131
330
10B
100
AcDbEntity
  8
Rahmen (ISO)
100
AcDbLine
 10
74.25000190734863
 20
10.0
 30
0.0
 11
74.25000190734863
 21
6.100000143051147
 31
0.0
  0
LINE
  5
132
330
10B
100
AcDbEntity
  8
Rahmen (ISO)
100
AcDbLine
 10
74.25000190734863
 20
410.0
 30
0.0
 11
74.25000190734863
 21
413.8999938964843
 31
0.0
  0
LINE
  5
133
330
10B
100
AcDbEntity
  8
Rahmen (ISO)
100
AcDbLine
 10
148.5000038146973
 20
10.0
 30
0.0
 11
148.5000038146973
 21
6.100000143051147
 31
0.0
  0
LINE
  5
134
330
10B
100
AcDbEntity
  8
Rahmen (ISO)
100
AcDbLine
 10
148.5000038146973
 20
410.0
 30
0.0
 11
148.5000038146973
 21
413.8999938964843
 31
0.0
  0
LINE
  5
135
330
10B
100
AcDbEntity
  8
Rahmen (ISO)
100
AcDbLine
 10
222.7499961853027
 20
10.0
 30
0.0
 11
222.7499961853027
 21
6.100000143051147
 31
0.0
  0
LINE
  5
136
330
10B
100
AcDbEntity
  8
Rahmen (ISO)
100
AcDbLine
 10
222.7499961853027
 20
410.0
 30
0.0
 11
222.7499961853027
 21
413.8999938964843
 31
0.0
  0
LINE
  5
137
330
10B
100
AcDbEntity
  8
Rahmen (ISO)
100
AcDbLine
 10
371.25
 20
10.0
 30
0.0
 11
371.25
 21
6.100000143051147
 31
0.0
  0
LINE
  5
138
330
10B
100
AcDbEntity
  8
Rahmen (ISO)
100
AcDbLine
 10
371.25
 20
410.0
 30
0.0
 11
371.25
 21
413.8999938964843
 31
0.0
  0
LINE
  5
139
330
10B
100
AcDbEntity
  8
Rahmen (ISO)
100
AcDbLine
 10
445.4999923706054
 20
10.0
 30
0.0
 11
445.4999923706054
 21
6.100000143051147
 31
0.0
  0
LINE
  5
13A
330
10B
100
AcDbEntity
  8
Rahmen (ISO)
100
AcDbLine
 10
445.4999923706054
 20
410.0
 30
0.0
 11
445.4999923706054
 21
413.8999938964843
 31
0.0
  0
LINE
  5
13B
330
10B
100
AcDbEntity
  8
Rahmen (ISO)
100
AcDbLine
 10
519.7499847412109
 20
10.0
 30
0.0
 11
519.7499847412109
 21
6.100000143051147
 31
0.0
  0
LINE
  5
13C
330
10B
100
AcDbEntity
  8
Rahmen (ISO)
100
AcDbLine
 10
519.7499847412109
 20
410.0
 30
0.0
 11
519.7499847412109
 21
413.8999938964843
 31
0.0
  0
MTEXT
  5
13D
330
10B
100
AcDbEntity
  8
Rahmen (ISO)
100
AcDbMText
 10
556.2996007767769
 20
410.4
 30
0.0
 40
3.499999940395355
 41
0.0
 71
     7
 72
     1
  1
1
  7
Notiztext (DIN)
 73
     1
 44
1.0
  0
MTEXT
  5
13F
330
10B
100
AcDbEntity
  8
Rahmen (ISO)
100
AcDbMText
 10
556.2996007767769
 20
6.100000059604644
 30
0.0
 40
3.499999940395355
 41
0.0
 71
     7
 72
     1
  1
1
  7
Notiztext (DIN)
 73
     1
 44
1.0
  0
MTEXT
  5
140
330
10B
100
AcDbEntity
  8
Rahmen (ISO)
100
AcDbMText
 10
481.7033748340614
 20
410.4
 30
0.0
 40
3.499999940395355
 41
0.0
 71
     7
 72
     1
  1
2
  7
Notiztext (DIN)
 73
     1
 44
1.0
  0
MTEXT
  5
141
330
10B
100
AcDbEntity
  8
Rahmen (ISO)
100
AcDbMText
 10
481.7033748340614
 20
6.100000059604644
 30
0.0
 40
3.499999940395355
 41
0.0
 71
     7
 72
     1
  1
2
  7
Notiztext (DIN)
 73
     1
 44
1.0
  0
MTEXT
  5
142
330
10B
100
AcDbEntity
  8
Rahmen (ISO)
100
AcDbMText
 10
407.4533748340615
 20
410.4
 30
0.0
 40
3.499999940395355
 41
0.0
 71
     7
 72
     1
  1
3
  7
Notiztext (DIN)
 73
     1
 44
1.0
  0
MTEXT
  5
143
330
10B
100
AcDbEntity
  8
Rahmen (ISO)
100
AcDbMText
 10
407.4533748340615
 20
6.100000059604644
 30
0.0
 40
3.499999940395355
 41
0.0
 71
     7
 72
     1
  1
3
  7
Notiztext (DIN)
 73
     1
 44
1.0
  0
MTEXT
  5
144
330
10B
100
AcDbEntity
  8
Rahmen (ISO)
100
AcDbMText
 10
333.0280501556405
 20
410.4
 30
0.0
 40
3.499999940395355
 41
0.0
 71
     7
 72
     1
  1
4
  7
Notiztext (DIN)
 73
     1
 44
1.0
  0
MTEXT
  5
145
330
10B
100
AcDbEntity
  8
Rahmen (ISO)
100
AcDbMText
 10
333.0280501556405
 20
6.100000059604644
 30
0.0
 40
3.499999940395355
 41
0.0
 71
     7
 72
     1
  1
4
  7
Notiztext (DIN)
 73
     1
 44
1.0
  0
MTEXT
  5
146
330
10B
100
AcDbEntity
  8
Rahmen (ISO)
100
AcDbMText
 10
258.9533748340616
 20
410.4
 30
0.0
 40
3.499999940395355
 41
0.0
 71
     7
 72
     1
  1
5
  7
Notiztext (DIN)
 73
     1
 44
1.0
  0
MTEXT
  5
147
330
10B
100
AcDbEntity
  8
Rahmen (ISO)
100
AcDbMText
 10
258.9533748340616
 20
6.100000059604644
 30
0.0
 40
3.499999940395355
 41
0.0
 71
     7
 72
     1
  1
5
  7
Notiztext (DIN)
 73
     1
 44
1.0
  0
MTEXT
  5
148
330
10B
100
AcDbEntity
  8
Rahmen (ISO)
100
AcDbMText
 10
184.7033748340616
 20
410.4
 30
0.0
 40
3.499999940395355
 41
0.0
 71
     7
 72
     1
  1
6
  7
Notiztext (DIN)
 73
     1
 44
1.0
  0
MTEXT
  5
149
330
10B
100
AcDbEntity
  8
Rahmen (ISO)
100
AcDbMText
 10
184.7033748340616
 20
6.100000059604644
 30
0.0
 40
3.499999940395355
 41
0.0
 71
     7
 72
     1
  1
6
  7
Notiztext (DIN)
 73
     1
 44
1.0
  0
MTEXT
  5
14A
330
10B
100
AcDbEntity
  8
Rahmen (ISO)
100
AcDbMText
 10
110.4505748269412
 20
410.4
 30
0.0
 40
3.499999940395355
 41
0.0
 71
     7
 72
     1
  1
7
  7
Notiztext (DIN)
 73
     1
 44
1.0
  0
MTEXT
  5
14B
330
10B
100
AcDbEntity
  8
Rahmen (ISO)
100
AcDbMText
 10
110.4505748269412
 20
6.100000059604644
 30
0.0
 40
3.499999940395355
 41
0.0
 71
     7
 72
     1
  1
7
  7
Notiztext (DIN)
 73
     1
 44
1.0
  0
MTEXT
  5
14C
330
10B
100
AcDbEntity
  8
Rahmen (ISO)
100
AcDbMText
 10
36.20337483406158
 20
410.4
 30
0.0
 40
3.499999940395355
 41
0.0
 71
     7
 72
     1
  1
8
  7
Notiztext (DIN)
 73
     1
 44
1.0
  0
MTEXT
  5
14D
330
10B
100
AcDbEntity
  8
Rahmen (ISO)
100
AcDbMText
 10
36.20337483406158
 20
6.100000059604644
 30
0.0
 40
3.499999940395355
 41
0.0
 71
     7
 72
     1
  1
8
  7
Notiztext (DIN)
 73
     1
 44
1.0
  0
LINE
  5
14E
330
10B
100
AcDbEntity
  8
Rahmen (ISO)
100
AcDbLine
 10
10.0
 20
70.0
 30
0.0
 11
6.100000143051147
 21
70.0
 31
0.0
  0
LINE
  5
14F
330
10B
100
AcDbEntity
  8
Rahmen (ISO)
100
AcDbLine
 10
584.000015258789
 20
70.0
 30
0.0
 11
587.9000091552734
 21
70.0
 31
0.0
  0
LINE
  5
150
330
10B
100
AcDbEntity
  8
Rahmen (ISO)
100
AcDbLine
 10
10.0
 20
140.0
 30
0.0
 11
6.100000143051147
 21
140.0
 31
0.0
  0
LINE
  5
151
330
10B
100
AcDbEntity
  8
Rahmen (ISO)
100
AcDbLine
 10
584.000015258789
 20
140.0
 30
0.0
 11
587.9000091552734
 21
140.0
 31
0.0
  0
LINE
  5
152
330
10B
100
AcDbEntity
  8
Rahmen (ISO)
100
AcDbLine
 10
10.0
 20
280.0
 30
0.0
 11
6.100000143051147
 21
280.0
 31
0.0
  0
LINE
  5
153
330
10B
100
AcDbEntity
  8
Rahmen (ISO)
100
AcDbLine
 10
584.000015258789
 20
280.0
 30
0.0
 11
587.9000091552734
 21
280.0
 31
0.0
  0
LINE
  5
154
330
10B
100
AcDbEntity
  8
Rahmen (ISO)
100
AcDbLine
 10
10.0
 20
350.0
 30
0.0
 11
6.100000143051147
 21
350.0
 31
0.0
  0
LINE
  5
155
330
10B
100
AcDbEntity
  8
Rahmen (ISO)
100
AcDbLine
 10
584.000015258789
 20
350.0
 30
0.0
 11
587.9000091552734
 21
350.0
 31
0.0
  0
MTEXT
  5
156
330
10B
100
AcDbEntity
  8
Rahmen (ISO)
100
AcDbMText
 10
6.577725507021792
 20
33.25000002980232
 30
0.0
 40
3.499999940395355
 41
0.0
 71
     7
 72
     1
  1
A
  7
Notiztext (DIN)
 73
     1
 44
1.0
  0
MTEXT
  5
157
330
10B
100
AcDbEntity
  8
Rahmen (ISO)
100
AcDbMText
 10
584.877725447417
 20
33.25000002980232
 30
0.0
 40
3.499999940395355
 41
0.0
 71
     7
 72
     1
  1
A
  7
Notiztext (DIN)
 73
     1
 44
1.0
  0
MTEXT
  5
158
330
10B
100
AcDbEntity
  8
Rahmen (ISO)
100
AcDbMText
 10
6.753050185442813
 20
103.2500000298023
 30
0.0
 40
3.499999940395355
 41
0.0
 71
     7
 72
     1
  1
B
  7
Notiztext (DIN)
 73
     1
 44
1.0
  0
MTEXT
  5
159
330
10B
100
AcDbEntity
  8
Rahmen (ISO)
100
AcDbMText
 10
585.0530501258381
 20
103.2500000298023
 30
0.0
 40
3.499999940395355
 41
0.0
 71
     7
 72
     1
  1
B
  7
Notiztext (DIN)
 73
     1
 44
1.0
  0
MTEXT
  5
15A
330
10B
100
AcDbEntity
  8
Rahmen (ISO)
100
AcDbMText
 10
6.928374863863833
 20
173.2500000298023
 30
0.0
 40
3.499999940395355
 41
0.0
 71
     7
 72
     1
  1
C
  7
Notiztext (DIN)
 73
     1
 44
1.0
  0
MTEXT
  5
15B
330
10B
100
AcDbEntity
  8
Rahmen (ISO)
100
AcDbMText
 10
585.2283748042591
 20
173.2500000298023
 30
0.0
 40
3.499999940395355
 41
0.0
 71
     7
 72
     1
  1
C
  7
Notiztext (DIN)
 73
     1
 44
1.0
  0
MTEXT
  5
15C
330
10B
100
AcDbEntity
  8
Rahmen (ISO)
100
AcDbMText
 10
6.753050185442813
 20
243.2500000298023
 30
0.0
 40
3.499999940395355
 41
0.0
 71
     7
 72
     1
  1
D
  7
Notiztext (DIN)
 73
     1
 44
1.0
  0
MTEXT
  5
15D
330
10B
100
AcDbEntity
  8
Rahmen (ISO)
100
AcDbMText
 10
585.0530501258381
 20
243.2500000298023
 30
0.0
 40
3.499999940395355
 41
0.0
 71
     7
 72
     1
  1
D
  7
Notiztext (DIN)
 73
     1
 44
1.0
  0
MTEXT
  5
15E
330
10B
100
AcDbEntity
  8
Rahmen (ISO)
100
AcDbMText
 10
6.928374863863833
 20
313.2500000298023
 30
0.0
 40
3.499999940395355
 41
0.0
 71
     7
 72
     1
  1
E
  7
Notiztext (DIN)
 73
     1
 44
1.0
  0
MTEXT
  5
15F
330
10B
100
AcDbEntity
  8
Rahmen (ISO)
100
AcDbMText
 10
585.2283748042591
 20
313.2500000298023
 30
0.0
 40
3.499999940395355
 41
0.0
 71
     7
 72
     1
  1
E
  7
Notiztext (DIN)
 73
     1
 44
1.0
  0
MTEXT
  5
160
330
10B
100
AcDbEntity
  8
Rahmen (ISO)
100
AcDbMText
 10
6.928374863863833
 20
383.2500000298023
 30
0.0
 40
3.499999940395355
 41
0.0
 71
     7
 72
     1
  1
F
  7
Notiztext (DIN)
 73
     1
 44
1.0
  0
MTEXT
  5
161
330
10B
100
AcDbEntity
  8
Rahmen (ISO)
100
AcDbMText
 10
585.2283748042591
 20
383.2500000298023
 30
0.0
 40
3.499999940395355
 41
0.0
 71
     7
 72
     1
  1
F
  7
Notiztext (DIN)
 73
     1
 44
1.0
  0
ENDBLK
  5
10D
330
10B
100
AcDbEntity
  8
0
100
AcDbBlockEnd
  0
BLOCK
  5
164
330
163
100
AcDbEntity
  8
0
100
AcDbBlockBegin
  2
Schriftfelder DIN
 70
     2
 10
0.0
 20
0.0
 30
0.0
  3
Schriftfelder DIN
  1

  0
LINE
  5
166
330
163
100
AcDbEntity
  8
Titel (ISO)
100
AcDbLine
 10
98.40092059607565
 20
99.828060382812
 30
0.0
 11
288.4009205960757
 21
99.82806038281204
 31
0.0
  0
LINE
  5
167
330
163
100
AcDbEntity
  8
Titel (ISO)
100
AcDbLine
 10
288.4009205960757
 20
99.82806038281204
 30
0.0
 11
288.4009205960757
 21
155.078060382812
 31
0.0
  0
LINE
  5
168
330
163
100
AcDbEntity
  8
Titel (ISO)
100
AcDbLine
 10
288.4009205960757
 20
155.078060382812
 30
0.0
 11
98.40092059607563
 21
155.078060382812
 31
0.0
  0
LINE
  5
169
330
163
100
AcDbEntity
  8
Titel (ISO)
100
AcDbLine
 10
98.40092059607565
 20
155.078060382812
 30
0.0
 11
98.40092059607565
 21
99.828060382812
 31
0.0
  0
LINE
  5
16A
330
163
100
AcDbEntity
  8
Titel (ISO)
100
AcDbLine
 10
153.0009205960757
 20
99.828060382812
 30
0.0
 11
153.0009205960756
 21
155.078060382812
 31
0.0
  0
LINE
  5
16B
330
163
100
AcDbEntity
  8
Titel (ISO)
100
AcDbLine
 10
197.2009205960756
 20
99.828060382812
 30
0.0
 11
197.2009205960756
 21
155.078060382812
 31
0.0
  0
LINE
  5
16C
330
163
100
AcDbEntity
  8
Titel (ISO)
100
AcDbLine
 10
98.40092059607565
 20
138.078060382812
 30
0.0
 11
288.4009205960757
 21
138.078060382812
 31
0.0
  0
LINE
  5
16D
330
163
100
AcDbEntity
  8
Titel (ISO)
100
AcDbLine
 10
153.0009205960757
 20
116.828060382812
 30
0.0
 11
288.4009205960757
 21
116.828060382812
 31
0.0
  0
LINE
  5
16E
330
163
100
AcDbEntity
  8
Titel (ISO)
100
AcDbLine
 10
197.2009205960756
 20
148.3280603828119
 30
0.0
 11
288.4009205960757
 21
148.328060382812
 31
0.0
  0
LINE
  5
16F
330
163
100
AcDbEntity
  8
Titel (ISO)
100
AcDbLine
 10
250.8
 20
148.328060382812
 30
0.0
 11
250.8
 21
155.0780603828119
 31
0.0
  0
LINE
  5
170
330
163
100
AcDbEntity
  8
Titel (ISO)
100
AcDbLine
 10
98.40092059607568
 20
104.078060382812
 30
0.0
 11
153.0009205960757
 21
104.078060382812
 31
0.0
  0
LINE
  5
171
330
163
100
AcDbEntity
  8
Titel (ISO)
100
AcDbLine
 10
153.0009205960757
 20
104.078060382812
 30
0.0
 11
197.2009205960756
 21
104.078060382812
 31
0.0
  0
LINE
  5
172
330
163
100
AcDbEntity
  8
Titel (ISO)
100
AcDbLine
 10
197.2009205960756
 20
104.078060382812
 30
0.0
 11
288.4009205960757
 21
104.078060382812
 31
0.0
  0
LINE
  5
173
330
163
100
AcDbEntity
  8
Titel (ISO)
100
AcDbLine
 10
242.8009205960757
 20
99.828060382812
 30
0.0
 11
242.8009205960757
 21
104.0780603828119
 31
0.0
  0
LINE
  5
174
330
163
100
AcDbEntity
  8
Titel (ISO)
100
AcDbLine
 10
272.6009205960756
 20
104.0780603828119
 30
0.0
 11
272.6009205960756
 21
116.828060382812
 31
0.0
  0
LINE
  5
175
330
163
100
AcDbEntity
  8
Titel (ISO)
100
AcDbLine
 10
272.6009205960756
 20
108.2190860238377
 30
0.0
 11
288.4009205960757
 21
108.2190860238376
 31
0.0
  0
LINE
  5
176
330
163
100
AcDbEntity
  8
Titel (ISO)
100
AcDbLine
 10
153.0009205960757
 20
108.328060382812
 30
0.0
 11
98.40092059607565
 21
108.328060382812
 31
0.0
  0
LINE
  5
177
330
163
100
AcDbEntity
  8
Titel (ISO)
100
AcDbLine
 10
98.40092059607565
 20
112.578060382812
 30
0.0
 11
153.0009205960757
 21
112.578060382812
 31
0.0
  0
LINE
  5
178
330
163
100
AcDbEntity
  8
Titel (ISO)
100
AcDbLine
 10
98.40092059607565
 20
116.8280603828121
 30
0.0
 11
153.0009205960757
 21
116.828060382812
 31
0.0
  0
LINE
  5
179
330
163
100
AcDbEntity
  8
Titel (ISO)
100
AcDbLine
 10
98.40092059607565
 20
121.0780603828121
 30
0.0
 11
153.0009205960757
 21
121.078060382812
 31
0.0
  0
LINE
  5
17A
330
163
100
AcDbEntity
  8
Titel (ISO)
100
AcDbLine
 10
153.0009205960757
 20
121.078060382812
 30
0.0
 11
197.2009205960756
 21
121.078060382812
 31
0.0
  0
LINE
  5
17B
330
163
100
AcDbEntity
  8
Titel (ISO)
100
AcDbLine
 10
98.40092059607565
 20
125.3280603828121
 30
0.0
 11
153.0009205960757
 21
125.3280603828121
 31
0.0
  0
LINE
  5
17C
330
163
100
AcDbEntity
  8
Titel (ISO)
100
AcDbLine
 10
153.0009205960757
 20
125.3280603828121
 30
0.0
 11
197.2009205960756
 21
125.328060382812
 31
0.0
  0
LINE
  5
17D
330
163
100
AcDbEntity
  8
Titel (ISO)
100
AcDbLine
 10
98.40092059607565
 20
129.578060382812
 30
0.0
 11
153.0009205960757
 21
129.578060382812
 31
0.0
  0
LINE
  5
17E
330
163
100
AcDbEntity
  8
Titel (ISO)
100
AcDbLine
 10
153.0009205960757
 20
129.578060382812
 30
0.0
 11
197.2009205960756
 21
129.578060382812
 31
0.0
  0
LINE
  5
17F
330
163
100
AcDbEntity
  8
Titel (ISO)
100
AcDbLine
 10
98.40092059607565
 20
133.8280603828121
 30
0.0
 11
153.0009205960757
 21
133.828060382812
 31
0.0
  0
LINE
  5
180
330
163
100
AcDbEntity
  8
Titel (ISO)
100
AcDbLine
 10
153.0009205960757
 20
133.828060382812
 30
0.0
 11
197.2009205960756
 21
133.828060382812
 31
0.0
  0
LINE
  5
181
330
163
100
AcDbEntity
  8
Titel (ISO)
100
AcDbLine
 10
106.2009205960756
 20
99.828060382812
 30
0.0
 11
106.2009205960756
 21
138.078060382812
 31
0.0
  0
LINE
  5
182
330
163
100
AcDbEntity
  8
Titel (ISO)
100
AcDbLine
 10
132.2009205960756
 20
99.828060382812
 30
0.0
 11
132.2009205960756
 21
138.078060382812
 31
0.0
  0
LINE
  5
183
330
163
100
AcDbEntity
  8
Titel (ISO)
100
AcDbLine
 10
145.2009205960756
 20
99.828060382812
 30
0.0
 11
145.2009205960756
 21
138.078060382812
 31
0.0
  0
LINE
  5
184
330
163
100
AcDbEntity
  8
Titel (ISO)
100
AcDbLine
 10
163.4009205960756
 20
121.078060382812
 30
0.0
 11
163.4009205960756
 21
138.078060382812
 31
0.0
  0
LINE
  5
185
330
163
100
AcDbEntity
  8
Titel (ISO)
100
AcDbLine
 10
179.0009205960756
 20
116.828060382812
 30
0.0
 11
179.0009205960756
 21
138.078060382812
 31
0.0
  0
LINE
  5
186
330
163
100
AcDbEntity
  8
Titel (ISO)
100
AcDbLine
 10
179.0009205960756
 20
138.078060382812
 30
0.0
 11
179.0009205960756
 21
155.078060382812
 31
0.0
  0
TEXT
  5
187
330
163
100
AcDbEntity
  8
Titel (ISO)
100
AcDbText
 10
99.22592047388617
 20
101.2030603530097
 30
0.0
 40
1.500000059604644
  1
Status
  7
Notiztext (DIN)
 72
     1
 11
102.3009205960757
 21
101.953060382812
 31
0.0
100
AcDbText
 73
     2
  0
TEXT
  5
18A
330
163
100
AcDbEntity
  8
Titel (ISO)
100
AcDbText
 10
113.8759203844792
 20
101.2030603530097
 30
0.0
 40
1.500000059604644
  1
Änderungen
  7
Notiztext (DIN)
 72
     1
 11
119.2009205960756
 21
101.953060382812
 31
0.0
100
AcDbText
 73
     2
  0
TEXT
  5
18B
330
163
100
AcDbEntity
  8
Titel (ISO)
100
AcDbText
 10
135.9259204858071
 20
101.2030603530097
 30
0.0
 40
1.500000059604644
  1
Datum
  7
Notiztext (DIN)
 72
     1
 11
138.7009205960757
 21
101.953060382812
 31
0.0
100
AcDbText
 73
     2
  0
TEXT
  5
18C
330
163
100
AcDbEntity
  8
Titel (ISO)
100
AcDbText
 10
146.7759205036885
 20
101.2030603530097
 30
0.0
 40
1.500000059604644
  1
Name
  7
Notiztext (DIN)
 72
     1
 11
149.1009205960757
 21
101.953060382812
 31
0.0
100
AcDbText
 73
     2
  0
TEXT
  5
18D
330
163
100
AcDbEntity
  8
Titel (ISO)
100
AcDbText
 10
154.0009205960757
 20
130.8178331196125
 30
0.0
 40
1.500000059604644
  1
Gezeichnet
 41
0.899999976158142
  7
Notiztext (DIN)
 11
154.0009205960757
 21
130.5780603828121
 31
0.0
100
AcDbText
 73
     1
  0
TEXT
  5
18E
330
163
100
AcDbEntity
  8
Titel (ISO)
100
AcDbText
 10
154.0009205960757
 20
126.5678331196125
 30
0.0
 40
1.500000059604644
  1
Kontrolliert
 41
0.8799999952316284
  7
Notiztext (DIN)
 11
154.0009205960757
 21
126.328060382812
 31
0.0
100
AcDbText
 73
     1
  0
TEXT
  5
18F
330
163
100
AcDbEntity
  8
Titel (ISO)
100
AcDbText
 10
154.0009205960757
 20
122.3178331196125
 30
0.0
 40
1.500000059604644
  1
Norm
  7
Notiztext (DIN)
 11
154.0009205960757
 21
122.078060382812
 31
0.0
100
AcDbText
 73
     1
  0
TEXT
  5
190
330
163
100
AcDbEntity
  8
Titel (ISO)
100
AcDbText
 10
167.5009205409413
 20
135.1477573572729
 30
0.0
 40
2.000000029802322
  1
Datum
  7
Notiztext (DIN)
 72
     1
 11
171.2009205960756
 21
134.828060382812
 31
0.0
100
AcDbText
 73
     1
  0
TEXT
  5
191
330
163
100
AcDbEntity
  8
Titel (ISO)
100
AcDbText
 10
185.000920549882
 20
135.1477573572729
 30
0.0
 40
2.000000029802322
  1
Name
  7
Notiztext (DIN)
 72
     1
 11
188.1009205960756
 21
134.828060382812
 31
0.0
100
AcDbText
 73
     1
  0
ATTDEF
  5
192
102
{ACAD_XDICTIONARY
360
269
102
}
330
163
100
AcDbEntity
  8
Titel (ISO)
100
AcDbText
 10
279.2509205960757
 20
110.0235732033248
 30
0.0
 40
5.0
  1
1
  7
Notiztext (DIN)
100
AcDbAttributeDefinition
  3
Blattnummer
  2
Blattnummer_001
 70
     0
  0
ATTDEF
  5
194
102
{ACAD_XDICTIONARY
360
26B
102
}
330
163
100
AcDbEntity
  8
Titel (ISO)
100
AcDbText
 10
278.5009205960757
 20
104.8985732033249
 30
0.0
 40
2.5
  1
A2
  7
Notiztext (DIN)
100
AcDbAttributeDefinition
  3
Blattgröße
  2
Blattgröße_001
 70
     0
  0
ATTDEF
  5
195
102
{ACAD_XDICTIONARY
360
26D
102
}
330
163
100
AcDbEntity
  8
Titel (ISO)
100
AcDbText
 10
198.2009205960756
 20
124.9530603828121
 30
0.0
 40
5.0
  1

  7
Notiztext (DIN)
 11
198.2009205960756
 21
127.4530603828121
 31
0.0
100
AcDbAttributeDefinition
  3
TITEL
  2
TITEL
 70
     0
 74
     2
  0
ATTDEF
  5
196
102
{ACAD_XDICTIONARY
360
26F
102
}
330
163
100
AcDbEntity
  8
Titel (ISO)
100
AcDbText
 10
198.2009205960756
 20
107.953060382812
 30
0.0
 40
5.0
  1

  7
Notiztext (DIN)
 11
198.2009205960756
 21
110.453060382812
 31
0.0
100
AcDbAttributeDefinition
  3
BAUTEILNUMMER
  2
BAUTEILNUMMER
 70
     0
 74
     2
  0
ATTDEF
  5
197
102
{ACAD_XDICTIONARY
360
271
102
}
330
163
100
AcDbEntity
  8
Titel (ISO)
100
AcDbText
 10
164.2009205930954
 20
130.5780603828121
 30
0.0
 40
2.000000029802322
  1
22.11.2010
  7
Notiztext (DIN)
100
AcDbAttributeDefinition
  3
CREATION DATE
  2
CREATION_DATE_001
 70
     0
  0
ATTDEF
  5
198
102
{ACAD_XDICTIONARY
360
273
102
}
330
163
100
AcDbEntity
  8
Titel (ISO)
100
AcDbText
 10
164.4009205960756
 20
126.6477573572728
 30
0.0
 40
2.000000029802322
  1

  7
Notiztext (DIN)
 11
164.4009205960756
 21
126.328060382812
 31
0.0
100
AcDbAttributeDefinition
  3
KONTROLLDATUM
  2
KONTROLLDATUM
 70
     0
 74
     1
  0
ATTDEF
  5
199
102
{ACAD_XDICTIONARY
360
275
102
}
330
163
100
AcDbEntity
  8
Titel (ISO)
100
AcDbText
 10
164.4009205960756
 20
122.3977573572728
 30
0.0
 40
2.000000029802322
  1

  7
Notiztext (DIN)
 11
164.4009205960756
 21
122.078060382812
 31
0.0
100
AcDbAttributeDefinition
  3
GENEHM.DAT. KONSTR.
  2
GENEHM.DAT._KONSTR.
 70
     0
 74
     1
  0
ATTDEF
  5
19A
102
{ACAD_XDICTIONARY
360
277
102
}
330
163
100
AcDbEntity
  8
Titel (ISO)
100
AcDbText
 10
179.8009205930954
 20
130.5780603828121
 30
0.0
 40
2.000000029802322
  1
rauch
  7
Notiztext (DIN)
100
AcDbAttributeDefinition
  3
AUTOR
  2
AUTOR_001
 70
     0
  0
ATTDEF
  5
19B
102
{ACAD_XDICTIONARY
360
279
102
}
330
163
100
AcDbEntity
  8
Titel (ISO)
100
AcDbText
 10
180.0009205960756
 20
122.3977573572728
 30
0.0
 40
2.000000029802322
  1

  7
Notiztext (DIN)
 11
180.0009205960756
 21
122.078060382812
 31
0.0
100
AcDbAttributeDefinition
  3
KONSTR. GEN. VON
  2
KONSTR._GEN._VON
 70
     0
 74
     1
  0
ATTDEF
  5
19C
102
{ACAD_XDICTIONARY
360
27B
102
}
330
163
100
AcDbEntity
  8
Titel (ISO)
100
AcDbText
 10
180.0009205960756
 20
126.6477573572728
 30
0.0
 40
2.000000029802322
  1

  7
Notiztext (DIN)
 11
180.0009205960756
 21
126.328060382812
 31
0.0
100
AcDbAttributeDefinition
  3
KONTROLLIERT VON
  2
KONTROLLIERT_VON
 70
     0
 74
     1
  0
ENDBLK
  5
165
330
163
100
AcDbEntity
  8
0
100
AcDbBlockEnd
  0
ENDSEC
  0
SECTION
  2
ENTITIES
  0
CIRCLE
  5
1A9
330
75
100
AcDbEntity
  8
Sichtbar (ISO)
100
AcDbCircle
 10
1025.301755633046
 20
1136.964044446188
 30
0.0
 40
4.5
  0
ARC
  5
1AA
330
75
100
AcDbEntity
  8
Sichtbar (ISO)
100
AcDbCircle
 10
1025.301755633046
 20
1136.964044446189
 30
0.0
 40
7.500000000000041
100
AcDbArc
 50
327.7690473644974
 51
212.2309526355026
  0
ARC
  5
1AB
330
75
100
AcDbEntity
  8
Sichtbar (ISO)
100
AcDbCircle
 10
1025.301755633046
 20
1136.964044446188
 30
0.0
 40
7.5
100
AcDbArc
 50
212.2309526355026
 51
327.7690473644986
  0
CIRCLE
  5
1AC
330
75
100
AcDbEntity
  8
Sichtbar (ISO)
100
AcDbCircle
 10
1025.301755633046
 20
1511.964044446188
 30
0.0
 40
4.5
  0
CIRCLE
  5
1AD
330
75
100
AcDbEntity
  8
Sichtbar (ISO)
100
AcDbCircle
 10
1025.301755633046
 20
1511.964044446188
 30
0.0
 40
7.5
  0
ARC
  5
1AE
330
75
100
AcDbEntity
  8
Sichtbar (ISO)
100
AcDbCircle
 10
1025.301755633046
 20
1336.964044446188
 30
0.0
 40
7.5
100
AcDbArc
 50
111.0394697813155
 51
68.96053021868326
  0
LINE
  5
1AF
330
75
100
AcDbEntity
  8
Sichtbar (ISO)
100
AcDbLine
 10
1022.609173229479
 20
1343.964044446188
 30
0.0
 11
1027.994338036613
 21
1343.964044446188
 31
0.0
  0
CIRCLE
  5
1B0
330
75
100
AcDbEntity
  8
Sichtbar (ISO)
100
AcDbCircle
 10
1025.301755633046
 20
1336.964044446188
 30
0.0
 40
4.5
  0
CIRCLE
  5
1B1
330
75
100
AcDbEntity
  8
Sichtbar (ISO)
100
AcDbCircle
 10
1025.301755633046
 20
961.9640444461886
 30
0.0
 40
4.5
  0
CIRCLE
  5
1B2
330
75
100
AcDbEntity
  8
Sichtbar (ISO)
100
AcDbCircle
 10
1025.301755633046
 20
961.9640444461886
 30
0.0
 40
7.5
  0
LINE
  5
1B3
330
75
100
AcDbEntity
  8
Sichtbar (ISO)
100
AcDbLine
 10
1018.957466862821
 20
1132.964044446189
 30
0.0
 11
1018.301755633046
 21
1132.964044446189
 31
0.0
  0
LINE
  5
1B4
330
75
100
AcDbEntity
  8
Sichtbar (ISO)
100
AcDbLine
 10
1017.801755633046
 20
1132.964044446189
 30
0.0
 11
1013.301755633046
 21
1132.964044446189
 31
0.0
  0
LINE
  5
1B5
330
75
100
AcDbEntity
  8
Sichtbar (ISO)
100
AcDbLine
 10
1010.301755633046
 20
1522.964044446189
 30
0.0
 11
1040.301755633046
 21
1522.964044446189
 31
0.0
  0
LINE
  5
1B6
330
75
100
AcDbEntity
  8
Sichtbar (ISO)
100
AcDbLine
 10
1010.301755633046
 20
942.9640444461886
 30
0.0
 11
1010.301755633046
 21
1522.964044446189
 31
0.0
  0
LINE
  5
1B7
330
75
100
AcDbEntity
  8
Sichtbar (ISO)
100
AcDbLine
 10
1040.301755633046
 20
942.9640444461886
 30
0.0
 11
1010.301755633046
 21
942.9640444461886
 31
0.0
  0
LINE
  5
1B8
330
75
100
AcDbEntity
  8
Sichtbar (ISO)
100
AcDbLine
 10
1040.301755633046
 20
1522.964044446189
 30
0.0
 11
1040.301755633046
 21
942.9640444461886
 31
0.0
  0
LINE
  5
1B9
330
75
100
AcDbEntity
  8
Sichtbar (ISO)
100
AcDbLine
 10
1037.301755633046
 20
947.9640444461887
 30
0.0
 11
1013.301755633046
 21
947.9640444461887
 31
0.0
  0
LINE
  5
1BA
330
75
100
AcDbEntity
  8
Sichtbar (ISO)
100
AcDbLine
 10
1013.301755633046
 20
947.9640444461887
 30
0.0
 11
1013.301755633046
 21
1110.964044446189
 31
0.0
  0
LINE
  5
1BB
330
75
100
AcDbEntity
  8
Sichtbar (ISO)
100
AcDbLine
 10
1013.301755633046
 20
1110.964044446189
 30
0.0
 11
1018.219647895938
 21
1110.964044446189
 31
0.0
  0
LINE
  5
1BC
330
75
100
AcDbEntity
  8
Sichtbar (ISO)
100
AcDbLine
 10
1032.383863370154
 20
1110.964044446189
 30
0.0
 11
1037.301755633046
 21
1110.964044446189
 31
0.0
  0
LINE
  5
1BD
330
75
100
AcDbEntity
  8
Sichtbar (ISO)
100
AcDbLine
 10
1037.301755633046
 20
1110.964044446189
 30
0.0
 11
1037.301755633046
 21
1102.130711112855
 31
0.0
  0
LINE
  5
1BE
330
75
100
AcDbEntity
  8
Sichtbar (ISO)
100
AcDbLine
 10
1037.301755633046
 20
1091.734915661441
 30
0.0
 11
1037.301755633046
 21
1084.966546010645
 31
0.0
  0
LINE
  5
1BF
330
75
100
AcDbEntity
  8
Sichtbar (ISO)
100
AcDbLine
 10
1037.301755633046
 20
1054.964044446188
 30
0.0
 11
1037.301755633046
 21
947.9640444461887
 31
0.0
  0
LINE
  5
1C0
330
75
100
AcDbEntity
  8
Sichtbar (ISO)
100
AcDbLine
 10
1037.301755633046
 20
1317.964044446189
 30
0.0
 11
1032.801755633046
 21
1317.964044446189
 31
0.0
  0
LINE
  5
1C1
330
75
100
AcDbEntity
  8
Sichtbar (ISO)
100
AcDbLine
 10
1032.301755633046
 20
1317.964044446189
 30
0.0
 11
1018.301755633046
 21
1317.964044446189
 31
0.0
  0
LINE
  5
1C2
330
75
100
AcDbEntity
  8
Sichtbar (ISO)
100
AcDbLine
 10
1017.801755633046
 20
1317.964044446189
 30
0.0
 11
1013.301755633046
 21
1317.964044446189
 31
0.0
  0
LINE
  5
1C3
330
75
100
AcDbEntity
  8
Sichtbar (ISO)
100
AcDbLine
 10
1013.301755633046
 20
1317.964044446189
 30
0.0
 11
1013.301755633046
 21
1480.964044446189
 31
0.0
  0
LINE
  5
1C4
330
75
100
AcDbEntity
  8
Sichtbar (ISO)
100
AcDbLine
 10
1013.301755633046
 20
1480.964044446189
 30
0.0
 11
1018.219647895938
 21
1480.964044446189
 31
0.0
  0
LINE
  5
1C5
330
75
100
AcDbEntity
  8
Sichtbar (ISO)
100
AcDbLine
 10
1032.383863370154
 20
1480.964044446189
 30
0.0
 11
1037.301755633046
 21
1480.964044446189
 31
0.0
  0
LINE
  5
1C6
330
75
100
AcDbEntity
  8
Sichtbar (ISO)
100
AcDbLine
 10
1037.301755633046
 20
1480.964044446189
 30
0.0
 11
1037.301755633046
 21
1472.130711112855
 31
0.0
  0
LINE
  5
1C7
330
75
100
AcDbEntity
  8
Sichtbar (ISO)
100
AcDbLine
 10
1037.301755633046
 20
1461.734915661441
 30
0.0
 11
1037.301755633046
 21
1454.966546010645
 31
0.0
  0
LINE
  5
1C8
330
75
100
AcDbEntity
  8
Sichtbar (ISO)
100
AcDbLine
 10
1037.301755633046
 20
1424.964044446189
 30
0.0
 11
1037.301755633046
 21
1317.964044446189
 31
0.0
  0
LINE
  5
1C9
330
75
100
AcDbEntity
  8
Sichtbar (ISO)
100
AcDbLine
 10
1013.301755633046
 20
1132.964044446189
 30
0.0
 11
1013.301755633046
 21
1295.964044446189
 31
0.0
  0
LINE
  5
1CA
330
75
100
AcDbEntity
  8
Sichtbar (ISO)
100
AcDbLine
 10
1013.301755633046
 20
1295.964044446189
 30
0.0
 11
1018.219647895938
 21
1295.964044446189
 31
0.0
  0
LINE
  5
1CB
330
75
100
AcDbEntity
  8
Sichtbar (ISO)
100
AcDbLine
 10
1032.383863370154
 20
1295.964044446189
 30
0.0
 11
1037.301755633046
 21
1295.964044446189
 31
0.0
  0
LINE
  5
1CC
330
75
100
AcDbEntity
  8
Sichtbar (ISO)
100
AcDbLine
 10
1037.301755633046
 20
1295.964044446189
 30
0.0
 11
1037.301755633046
 21
1287.130711112856
 31
0.0
  0
LINE
  5
1CD
330
75
100
AcDbEntity
  8
Sichtbar (ISO)
100
AcDbLine
 10
1037.301755633046
 20
1276.734915661441
 30
0.0
 11
1037.301755633046
 21
1269.966546010645
 31
0.0
  0
LINE
  5
1CE
330
75
100
AcDbEntity
  8
Sichtbar (ISO)
100
AcDbLine
 10
1037.301755633046
 20
1239.964044446189
 30
0.0
 11
1037.301755633046
 21
1132.964044446189
 31
0.0
  0
LINE
  5
1CF
330
75
100
AcDbEntity
  8
Sichtbar (ISO)
100
AcDbLine
 10
1037.301755633046
 20
1132.964044446189
 30
0.0
 11
1032.801755633046
 21
1132.964044446189
 31
0.0
  0
LINE
  5
1D0
330
75
100
AcDbEntity
  8
Sichtbar (ISO)
100
AcDbLine
 10
1032.301755633046
 20
1132.964044446189
 30
0.0
 11
1031.646044403271
 21
1132.964044446189
 31
0.0
  0
LINE
  5
1D1
330
75
100
AcDbEntity
  8
Sichtbar (ISO)
100
AcDbLine
 10
1022.609173229479
 20
1343.964044446188
 30
0.0
 11
1021.301755633046
 21
1343.964044446188
 31
0.0
  0
LINE
  5
1D2
330
75
100
AcDbEntity
  8
Sichtbar (ISO)
100
AcDbLine
 10
1021.301755633046
 20
1343.964044446188
 30
0.0
 11
1021.301755633046
 21
1424.964044446189
 31
0.0
  0
LINE
  5
1D3
330
75
100
AcDbEntity
  8
Sichtbar (ISO)
100
AcDbLine
 10
1029.301755633046
 20
1424.964044446189
 30
0.0
 11
1029.301755633046
 21
1343.964044446188
 31
0.0
  0
LINE
  5
1D4
330
75
100
AcDbEntity
  8
Sichtbar (ISO)
100
AcDbLine
 10
1029.301755633046
 20
1343.964044446188
 30
0.0
 11
1027.994338036613
 21
1343.964044446188
 31
0.0
  0
LINE
  5
1D5
330
75
100
AcDbEntity
  8
Sichtbar (ISO)
100
AcDbLine
 10
1029.301755633046
 20
1054.964044446188
 30
0.0
 11
1029.301755633046
 21
973.9640444461887
 31
0.0
  0
LINE
  5
1D6
330
75
100
AcDbEntity
  8
Sichtbar (ISO)
100
AcDbLine
 10
1029.301755633046
 20
973.9640444461887
 30
0.0
 11
1021.301755633046
 21
973.9640444461887
 31
0.0
  0
LINE
  5
1D7
330
75
100
AcDbEntity
  8
Sichtbar (ISO)
100
AcDbLine
 10
1021.301755633046
 20
973.9640444461887
 30
0.0
 11
1021.301755633046
 21
1054.964044446188
 31
0.0
  0
LINE
  5
1D8
330
75
100
AcDbEntity
  8
Sichtbar (ISO)
100
AcDbLine
 10
1029.301755633046
 20
1239.964044446189
 30
0.0
 11
1029.301755633046
 21
1158.964044446189
 31
0.0
  0
LINE
  5
1D9
330
75
100
AcDbEntity
  8
Sichtbar (ISO)
100
AcDbLine
 10
1029.301755633046
 20
1158.964044446189
 30
0.0
 11
1021.301755633046
 21
1158.964044446189
 31
0.0
  0
LINE
  5
1DA
330
75
100
AcDbEntity
  8
Sichtbar (ISO)
100
AcDbLine
 10
1021.301755633046
 20
1158.964044446189
 30
0.0
 11
1021.301755633046
 21
1239.964044446189
 31
0.0
  0
LINE
  5
1DB
330
75
100
AcDbEntity
  8
Sichtbar (ISO)
100
AcDbLine
 10
1032.801755633046
 20
1503.964044446188
 30
0.0
 11
1032.801755633046
 21
1483.964044446189
 31
0.0
  0
LINE
  5
1DC
330
75
100
AcDbEntity
  8
Sichtbar (ISO)
100
AcDbLine
 10
1017.801755633046
 20
1483.964044446189
 30
0.0
 11
1017.801755633046
 21
1503.964044446188
 31
0.0
  0
ARC
  5
1DD
330
75
100
AcDbEntity
  8
Sichtbar (ISO)
100
AcDbCircle
 10
1025.301755633046
 20
1483.479669446189
 30
0.0
 40
7.515625000000014
100
AcDbArc
 50
176.3047794680101
 51
3.695220531988496
  0
ARC
  5
1DE
330
75
100
AcDbEntity
  8
Sichtbar (ISO)
100
AcDbCircle
 10
1025.301755633046
 20
1507.089044446189
 30
0.0
 40
8.125000000000017
100
AcDbArc
 50
202.6198649480406
 51
337.3801350519594
  0
CIRCLE
  5
1DF
330
75
100
AcDbEntity
  8
Sichtbar (ISO)
100
AcDbCircle
 10
1025.301755633046
 20
1492.964044446189
 30
0.0
 40
5.000000000000011
  0
LINE
  5
1E0
330
75
100
AcDbEntity
  8
Sichtbar (ISO)
100
AcDbLine
 10
1032.801755633046
 20
1318.964044446188
 30
0.0
 11
1032.801755633046
 21
1298.964044446189
 31
0.0
  0
LINE
  5
1E1
330
75
100
AcDbEntity
  8
Sichtbar (ISO)
100
AcDbLine
 10
1017.801755633046
 20
1298.964044446189
 30
0.0
 11
1017.801755633046
 21
1318.964044446188
 31
0.0
  0
ARC
  5
1E2
330
75
100
AcDbEntity
  8
Sichtbar (ISO)
100
AcDbCircle
 10
1025.301755633046
 20
1298.479669446188
 30
0.0
 40
7.515625000000014
100
AcDbArc
 50
176.3047794680101
 51
3.695220531988496
  0
ARC
  5
1E3
330
75
100
AcDbEntity
  8
Sichtbar (ISO)
100
AcDbCircle
 10
1025.301755633046
 20
1322.089044446189
 30
0.0
 40
8.125000000000017
100
AcDbArc
 50
202.6198649480406
 51
337.3801350519594
  0
CIRCLE
  5
1E4
330
75
100
AcDbEntity
  8
Sichtbar (ISO)
100
AcDbCircle
 10
1025.301755633046
 20
1307.964044446189
 30
0.0
 40
5.000000000000011
  0
LINE
  5
1E5
330
75
100
AcDbEntity
  8
Sichtbar (ISO)
100
AcDbLine
 10
1032.801755633046
 20
1133.964044446188
 30
0.0
 11
1032.801755633046
 21
1113.964044446189
 31
0.0
  0
LINE
  5
1E6
330
75
100
AcDbEntity
  8
Sichtbar (ISO)
100
AcDbLine
 10
1017.801755633046
 20
1113.964044446189
 30
0.0
 11
1017.801755633046
 21
1133.964044446188
 31
0.0
  0
ARC
  5
1E7
330
75
100
AcDbEntity
  8
Sichtbar (ISO)
100
AcDbCircle
 10
1025.301755633046
 20
1113.479669446189
 30
0.0
 40
7.515625000000014
100
AcDbArc
 50
176.3047794680101
 51
3.695220531988496
  0
ARC
  5
1E8
330
75
100
AcDbEntity
  8
Sichtbar (ISO)
100
AcDbCircle
 10
1025.301755633046
 20
1137.089044446188
 30
0.0
 40
8.125000000000017
100
AcDbArc
 50
202.6198649480406
 51
337.3801350519594
  0
CIRCLE
  5
1E9
330
75
100
AcDbEntity
  8
Sichtbar (ISO)
100
AcDbCircle
 10
1025.301755633046
 20
1122.964044446189
 30
0.0
 40
5.000000000000011
  0
LINE
  5
1EA
330
75
100
AcDbEntity
  8
Sichtbar (ISO)
100
AcDbLine
 10
1028.708872302889
 20
1489.304596947169
 30
0.0
 11
1025.534971657572
 21
1491.569193097154
 31
0.0
  0
LINE
  5
1EB
330
75
100
AcDbEntity
  8
Sichtbar (ISO)
100
AcDbLine
 10
1021.894638963203
 20
1496.623491945208
 30
0.0
 11
1025.06853960852
 21
1494.358895795224
 31
0.0
  0
LINE
  5
1EC
330
75
100
AcDbEntity
  8
Sichtbar (ISO)
100
AcDbLine
 10
1025.06853960852
 20
1494.358895795224
 30
0.0
 11
1026.810992595283
 21
1496.800996855565
 31
0.0
  0
LINE
  5
1ED
330
75
100
AcDbEntity
  8
Sichtbar (ISO)
100
AcDbLine
 10
1022.164451297248
 20
1490.288727361321
 30
0.0
 11
1023.906904284011
 21
1492.730828421662
 31
0.0
  0
LINE
  5
1EE
330
75
100
AcDbEntity
  8
Sichtbar (ISO)
100
AcDbLine
 10
1028.439059968844
 20
1495.639361531056
 30
0.0
 11
1026.696606982081
 21
1493.197260470714
 31
0.0
  0
LINE
  5
1EF
330
75
100
AcDbEntity
  8
Sichtbar (ISO)
100
AcDbLine
 10
1023.792518670809
 20
1489.127092036812
 30
0.0
 11
1022.164451297248
 21
1490.288727361321
 31
0.0
  0
LINE
  5
1F0
330
75
100
AcDbEntity
  8
Sichtbar (ISO)
100
AcDbLine
 10
1025.534971657572
 20
1491.569193097154
 30
0.0
 11
1023.792518670809
 21
1489.127092036812
 31
0.0
  0
LINE
  5
1F1
330
75
100
AcDbEntity
  8
Sichtbar (ISO)
100
AcDbLine
 10
1026.810992595283
 20
1496.800996855565
 30
0.0
 11
1028.439059968844
 21
1495.639361531056
 31
0.0
  0
LINE
  5
1F2
330
75
100
AcDbEntity
  8
Sichtbar (ISO)
100
AcDbLine
 10
1026.696606982081
 20
1493.197260470714
 30
0.0
 11
1029.870507627398
 21
1490.93266432073
 31
0.0
  0
LINE
  5
1F3
330
75
100
AcDbEntity
  8
Sichtbar (ISO)
100
AcDbLine
 10
1023.906904284011
 20
1492.730828421662
 30
0.0
 11
1020.733003638694
 21
1494.995424571647
 31
0.0
  0
LINE
  5
1F4
330
75
100
AcDbEntity
  8
Sichtbar (ISO)
100
AcDbLine
 10
1029.208872302889
 20
1442.304596947169
 30
0.0
 11
1026.034971657572
 21
1444.569193097154
 31
0.0
  0
LINE
  5
1F5
330
75
100
AcDbEntity
  8
Sichtbar (ISO)
100
AcDbLine
 10
1022.394638963203
 20
1449.623491945208
 30
0.0
 11
1025.56853960852
 21
1447.358895795223
 31
0.0
  0
LINE
  5
1F6
330
75
100
AcDbEntity
  8
Sichtbar (ISO)
100
AcDbLine
 10
1025.56853960852
 20
1447.358895795223
 30
0.0
 11
1027.310992595283
 21
1449.800996855565
 31
0.0
  0
LINE
  5
1F7
330
75
100
AcDbEntity
  8
Sichtbar (ISO)
100
AcDbLine
 10
1022.664451297248
 20
1443.288727361321
 30
0.0
 11
1024.406904284011
 21
1445.730828421663
 31
0.0
  0
LINE
  5
1F8
330
75
100
AcDbEntity
  8
Sichtbar (ISO)
100
AcDbLine
 10
1028.939059968844
 20
1448.639361531056
 30
0.0
 11
1027.196606982081
 21
1446.197260470715
 31
0.0
  0
LINE
  5
1F9
330
75
100
AcDbEntity
  8
Sichtbar (ISO)
100
AcDbLine
 10
1024.292518670809
 20
1442.127092036812
 30
0.0
 11
1022.664451297248
 21
1443.288727361321
 31
0.0
  0
LINE
  5
1FA
330
75
100
AcDbEntity
  8
Sichtbar (ISO)
100
AcDbLine
 10
1026.034971657572
 20
1444.569193097154
 30
0.0
 11
1024.292518670809
 21
1442.127092036812
 31
0.0
  0
LINE
  5
1FB
330
75
100
AcDbEntity
  8
Sichtbar (ISO)
100
AcDbLine
 10
1027.310992595283
 20
1449.800996855565
 30
0.0
 11
1028.939059968844
 21
1448.639361531056
 31
0.0
  0
LINE
  5
1FC
330
75
100
AcDbEntity
  8
Sichtbar (ISO)
100
AcDbLine
 10
1027.196606982081
 20
1446.197260470715
 30
0.0
 11
1030.370507627398
 21
1443.93266432073
 31
0.0
  0
LINE
  5
1FD
330
75
100
AcDbEntity
  8
Sichtbar (ISO)
100
AcDbLine
 10
1024.406904284011
 20
1445.730828421663
 30
0.0
 11
1021.233003638694
 21
1447.995424571647
 31
0.0
  0
LINE
  5
1FE
330
75
100
AcDbEntity
  8
Sichtbar (ISO)
100
AcDbLine
 10
1028.708872302889
 20
1304.304596947169
 30
0.0
 11
1025.534971657572
 21
1306.569193097154
 31
0.0
  0
LINE
  5
1FF
330
75
100
AcDbEntity
  8
Sichtbar (ISO)
100
AcDbLine
 10
1021.894638963203
 20
1311.623491945208
 30
0.0
 11
1025.06853960852
 21
1309.358895795223
 31
0.0
  0
LINE
  5
200
330
75
100
AcDbEntity
  8
Sichtbar (ISO)
100
AcDbLine
 10
1025.06853960852
 20
1309.358895795223
 30
0.0
 11
1026.810992595283
 21
1311.800996855565
 31
0.0
  0
LINE
  5
201
330
75
100
AcDbEntity
  8
Sichtbar (ISO)
100
AcDbLine
 10
1022.164451297248
 20
1305.288727361321
 30
0.0
 11
1023.906904284011
 21
1307.730828421663
 31
0.0
  0
LINE
  5
202
330
75
100
AcDbEntity
  8
Sichtbar (ISO)
100
AcDbLine
 10
1028.439059968844
 20
1310.639361531056
 30
0.0
 11
1026.696606982081
 21
1308.197260470715
 31
0.0
  0
LINE
  5
203
330
75
100
AcDbEntity
  8
Sichtbar (ISO)
100
AcDbLine
 10
1023.792518670809
 20
1304.127092036813
 30
0.0
 11
1022.164451297248
 21
1305.288727361321
 31
0.0
  0
LINE
  5
204
330
75
100
AcDbEntity
  8
Sichtbar (ISO)
100
AcDbLine
 10
1025.534971657572
 20
1306.569193097154
 30
0.0
 11
1023.792518670809
 21
1304.127092036813
 31
0.0
  0
LINE
  5
205
330
75
100
AcDbEntity
  8
Sichtbar (ISO)
100
AcDbLine
 10
1026.810992595283
 20
1311.800996855565
 30
0.0
 11
1028.439059968844
 21
1310.639361531056
 31
0.0
  0
LINE
  5
206
330
75
100
AcDbEntity
  8
Sichtbar (ISO)
100
AcDbLine
 10
1026.696606982081
 20
1308.197260470715
 30
0.0
 11
1029.870507627398
 21
1305.93266432073
 31
0.0
  0
LINE
  5
207
330
75
100
AcDbEntity
  8
Sichtbar (ISO)
100
AcDbLine
 10
1023.906904284011
 20
1307.730828421663
 30
0.0
 11
1020.733003638694
 21
1309.995424571647
 31
0.0
  0
LINE
  5
208
330
75
100
AcDbEntity
  8
Sichtbar (ISO)
100
AcDbLine
 10
1029.208872302889
 20
1257.304596947169
 30
0.0
 11
1026.034971657572
 21
1259.569193097154
 31
0.0
  0
LINE
  5
209
330
75
100
AcDbEntity
  8
Sichtbar (ISO)
100
AcDbLine
 10
1022.394638963203
 20
1264.623491945208
 30
0.0
 11
1025.56853960852
 21
1262.358895795223
 31
0.0
  0
LINE
  5
20A
330
75
100
AcDbEntity
  8
Sichtbar (ISO)
100
AcDbLine
 10
1025.56853960852
 20
1262.358895795223
 30
0.0
 11
1027.310992595283
 21
1264.800996855565
 31
0.0
  0
LINE
  5
20B
330
75
100
AcDbEntity
  8
Sichtbar (ISO)
100
AcDbLine
 10
1022.664451297248
 20
1258.288727361321
 30
0.0
 11
1024.406904284011
 21
1260.730828421663
 31
0.0
  0
LINE
  5
20C
330
75
100
AcDbEntity
  8
Sichtbar (ISO)
100
AcDbLine
 10
1028.939059968844
 20
1263.639361531056
 30
0.0
 11
1027.196606982081
 21
1261.197260470715
 31
0.0
  0
LINE
  5
20D
330
75
100
AcDbEntity
  8
Sichtbar (ISO)
100
AcDbLine
 10
1024.292518670809
 20
1257.127092036812
 30
0.0
 11
1022.664451297248
 21
1258.288727361321
 31
0.0
  0
LINE
  5
20E
330
75
100
AcDbEntity
  8
Sichtbar (ISO)
100
AcDbLine
 10
1026.034971657572
 20
1259.569193097154
 30
0.0
 11
1024.292518670809
 21
1257.127092036812
 31
0.0
  0
LINE
  5
20F
330
75
100
AcDbEntity
  8
Sichtbar (ISO)
100
AcDbLine
 10
1027.310992595283
 20
1264.800996855565
 30
0.0
 11
1028.939059968844
 21
1263.639361531056
 31
0.0
  0
LINE
  5
210
330
75
100
AcDbEntity
  8
Sichtbar (ISO)
100
AcDbLine
 10
1027.196606982081
 20
1261.197260470715
 30
0.0
 11
1030.370507627398
 21
1258.93266432073
 31
0.0
  0
LINE
  5
211
330
75
100
AcDbEntity
  8
Sichtbar (ISO)
100
AcDbLine
 10
1024.406904284011
 20
1260.730828421663
 30
0.0
 11
1021.233003638694
 21
1262.995424571647
 31
0.0
  0
LINE
  5
212
330
75
100
AcDbEntity
  8
Sichtbar (ISO)
100
AcDbLine
 10
1028.708872302889
 20
1119.304596947169
 30
0.0
 11
1025.534971657572
 21
1121.569193097154
 31
0.0
  0
LINE
  5
213
330
75
100
AcDbEntity
  8
Sichtbar (ISO)
100
AcDbLine
 10
1021.894638963203
 20
1126.623491945208
 30
0.0
 11
1025.06853960852
 21
1124.358895795223
 31
0.0
  0
LINE
  5
214
330
75
100
AcDbEntity
  8
Sichtbar (ISO)
100
AcDbLine
 10
1025.06853960852
 20
1124.358895795223
 30
0.0
 11
1026.810992595283
 21
1126.800996855565
 31
0.0
  0
LINE
  5
215
330
75
100
AcDbEntity
  8
Sichtbar (ISO)
100
AcDbLine
 10
1022.164451297248
 20
1120.288727361321
 30
0.0
 11
1023.906904284011
 21
1122.730828421662
 31
0.0
  0
LINE
  5
216
330
75
100
AcDbEntity
  8
Sichtbar (ISO)
100
AcDbLine
 10
1028.439059968844
 20
1125.639361531056
 30
0.0
 11
1026.696606982081
 21
1123.197260470715
 31
0.0
  0
LINE
  5
217
330
75
100
AcDbEntity
  8
Sichtbar (ISO)
100
AcDbLine
 10
1023.792518670809
 20
1119.127092036812
 30
0.0
 11
1022.164451297248
 21
1120.288727361321
 31
0.0
  0
LINE
  5
218
330
75
100
AcDbEntity
  8
Sichtbar (ISO)
100
AcDbLine
 10
1025.534971657572
 20
1121.569193097154
 30
0.0
 11
1023.792518670809
 21
1119.127092036812
 31
0.0
  0
LINE
  5
219
330
75
100
AcDbEntity
  8
Sichtbar (ISO)
100
AcDbLine
 10
1026.810992595283
 20
1126.800996855565
 30
0.0
 11
1028.439059968844
 21
1125.639361531056
 31
0.0
  0
LINE
  5
21A
330
75
100
AcDbEntity
  8
Sichtbar (ISO)
100
AcDbLine
 10
1026.696606982081
 20
1123.197260470715
 30
0.0
 11
1029.870507627398
 21
1120.93266432073
 31
0.0
  0
LINE
  5
21B
330
75
100
AcDbEntity
  8
Sichtbar (ISO)
100
AcDbLine
 10
1023.906904284011
 20
1122.730828421662
 30
0.0
 11
1020.733003638694
 21
1124.995424571647
 31
0.0
  0
LINE
  5
21C
330
75
100
AcDbEntity
  8
Sichtbar (ISO)
100
AcDbLine
 10
1029.208872302889
 20
1072.304596947169
 30
0.0
 11
1026.034971657572
 21
1074.569193097154
 31
0.0
  0
LINE
  5
21D
330
75
100
AcDbEntity
  8
Sichtbar (ISO)
100
AcDbLine
 10
1022.394638963203
 20
1079.623491945208
 30
0.0
 11
1025.56853960852
 21
1077.358895795224
 31
0.0
  0
LINE
  5
21E
330
75
100
AcDbEntity
  8
Sichtbar (ISO)
100
AcDbLine
 10
1025.56853960852
 20
1077.358895795224
 30
0.0
 11
1027.310992595283
 21
1079.800996855565
 31
0.0
  0
LINE
  5
21F
330
75
100
AcDbEntity
  8
Sichtbar (ISO)
100
AcDbLine
 10
1022.664451297248
 20
1073.288727361321
 30
0.0
 11
1024.406904284011
 21
1075.730828421663
 31
0.0
  0
LINE
  5
220
330
75
100
AcDbEntity
  8
Sichtbar (ISO)
100
AcDbLine
 10
1028.939059968844
 20
1078.639361531056
 30
0.0
 11
1027.196606982081
 21
1076.197260470715
 31
0.0
  0
LINE
  5
221
330
75
100
AcDbEntity
  8
Sichtbar (ISO)
100
AcDbLine
 10
1024.292518670809
 20
1072.127092036812
 30
0.0
 11
1022.664451297248
 21
1073.288727361321
 31
0.0
  0
LINE
  5
222
330
75
100
AcDbEntity
  8
Sichtbar (ISO)
100
AcDbLine
 10
1026.034971657572
 20
1074.569193097154
 30
0.0
 11
1024.292518670809
 21
1072.127092036813
 31
0.0
  0
LINE
  5
223
330
75
100
AcDbEntity
  8
Sichtbar (ISO)
100
AcDbLine
 10
1027.310992595283
 20
1079.800996855565
 30
0.0
 11
1028.939059968844
 21
1078.639361531056
 31
0.0
  0
LINE
  5
224
330
75
100
AcDbEntity
  8
Sichtbar (ISO)
100
AcDbLine
 10
1027.196606982081
 20
1076.197260470715
 30
0.0
 11
1030.370507627398
 21
1073.93266432073
 31
0.0
  0
LINE
  5
225
330
75
100
AcDbEntity
  8
Sichtbar (ISO)
100
AcDbLine
 10
1024.406904284011
 20
1075.730828421663
 30
0.0
 11
1021.233003638694
 21
1077.995424571647
 31
0.0
  0
CIRCLE
  5
226
330
75
100
AcDbEntity
  8
Sichtbar (ISO)
100
AcDbCircle
 10
1025.801755633046
 20
1432.964044446189
 30
0.0
 40
2.750000000000001
  0
CIRCLE
  5
227
330
75
100
AcDbEntity
  8
Sichtbar (ISO)
100
AcDbCircle
 10
1025.801755633046
 20
1445.964044446189
 30
0.0
 40
5.000000000000001
  0
LINE
  5
228
330
75
100
AcDbEntity
  8
Sichtbar (ISO)
100
AcDbLine
 10
1013.801755633046
 20
1454.964044446189
 30
0.0
 11
1017.801755633046
 21
1454.964044446189
 31
0.0
  0
LINE
  5
229
330
75
100
AcDbEntity
  8
Sichtbar (ISO)
100
AcDbLine
 10
1013.801755633046
 20
1454.964044446189
 30
0.0
 11
1013.801755633046
 21
1424.964044446189
 31
0.0
  0
LINE
  5
22A
330
75
100
AcDbEntity
  8
Sichtbar (ISO)
100
AcDbLine
 10
1013.801755633046
 20
1424.964044446189
 30
0.0
 11
1017.801755633046
 21
1424.964044446189
 31
0.0
  0
LINE
  5
22B
330
75
100
AcDbEntity
  8
Sichtbar (ISO)
100
AcDbLine
 10
1033.801755633046
 20
1424.964044446189
 30
0.0
 11
1037.801755633046
 21
1424.964044446189
 31
0.0
  0
LINE
  5
22C
330
75
100
AcDbEntity
  8
Sichtbar (ISO)
100
AcDbLine
 10
1037.801755633046
 20
1424.964044446189
 30
0.0
 11
1037.801755633046
 21
1454.964044446189
 31
0.0
  0
LINE
  5
22D
330
75
100
AcDbEntity
  8
Sichtbar (ISO)
100
AcDbLine
 10
1033.801755633046
 20
1454.964044446189
 30
0.0
 11
1037.801755633046
 21
1454.964044446189
 31
0.0
  0
LINE
  5
22E
330
75
100
AcDbEntity
  8
Sichtbar (ISO)
100
AcDbLine
 10
1013.801755633046
 20
1457.764044446189
 30
0.0
 11
1013.801755633046
 21
1454.964044446189
 31
0.0
  0
LINE
  5
22F
330
75
100
AcDbEntity
  8
Sichtbar (ISO)
100
AcDbLine
 10
1013.801755633046
 20
1461.964044446189
 30
0.0
 11
1013.801755633046
 21
1457.764044446189
 31
0.0
  0
LINE
  5
230
330
75
100
AcDbEntity
  8
Sichtbar (ISO)
100
AcDbLine
 10
1013.801755633046
 20
1471.964044446188
 30
0.0
 11
1013.801755633046
 21
1461.964044446189
 31
0.0
  0
LINE
  5
231
330
75
100
AcDbEntity
  8
Sichtbar (ISO)
100
AcDbLine
 10
1013.801755633046
 20
1480.964044446189
 30
0.0
 11
1013.801755633046
 21
1471.964044446188
 31
0.0
  0
LINE
  5
232
330
75
100
AcDbEntity
  8
Sichtbar (ISO)
100
AcDbLine
 10
1037.801755633046
 20
1454.964044446189
 30
0.0
 11
1037.801755633046
 21
1454.966546010645
 31
0.0
  0
LINE
  5
233
330
75
100
AcDbEntity
  8
Sichtbar (ISO)
100
AcDbLine
 10
1037.801755633046
 20
1461.734915661441
 30
0.0
 11
1037.801755633046
 21
1461.964044446189
 31
0.0
  0
LINE
  5
234
330
75
100
AcDbEntity
  8
Sichtbar (ISO)
100
AcDbLine
 10
1013.801755633046
 20
1461.964044446189
 30
0.0
 11
1037.801755633046
 21
1461.964044446189
 31
0.0
  0
LINE
  5
235
330
75
100
AcDbEntity
  8
Sichtbar (ISO)
100
AcDbLine
 10
1037.801755633046
 20
1461.964044446189
 30
0.0
 11
1037.801755633046
 21
1471.964044446188
 31
0.0
  0
LINE
  5
236
330
75
100
AcDbEntity
  8
Sichtbar (ISO)
100
AcDbLine
 10
1013.801755633046
 20
1471.964044446188
 30
0.0
 11
1037.801755633046
 21
1471.964044446188
 31
0.0
  0
LINE
  5
237
330
75
100
AcDbEntity
  8
Sichtbar (ISO)
100
AcDbLine
 10
1037.801755633046
 20
1471.964044446188
 30
0.0
 11
1037.801755633046
 21
1472.130711112855
 31
0.0
  0
LINE
  5
238
330
75
100
AcDbEntity
  8
Sichtbar (ISO)
100
AcDbLine
 10
1033.801755633046
 20
1424.964044446189
 30
0.0
 11
1033.801755633046
 21
1460.964044446189
 31
0.0
  0
LINE
  5
239
330
75
100
AcDbEntity
  8
Sichtbar (ISO)
100
AcDbLine
 10
1017.801755633046
 20
1424.964044446189
 30
0.0
 11
1033.801755633046
 21
1424.964044446189
 31
0.0
  0
LINE
  5
23A
330
75
100
AcDbEntity
  8
Sichtbar (ISO)
100
AcDbLine
 10
1017.801755633046
 20
1460.964044446189
 30
0.0
 11
1017.801755633046
 21
1424.964044446189
 31
0.0
  0
LINE
  5
23B
330
75
100
AcDbEntity
  8
Sichtbar (ISO)
100
AcDbLine
 10
1017.801755633046
 20
1460.964044446189
 30
0.0
 11
1033.801755633046
 21
1460.964044446189
 31
0.0
  0
CIRCLE
  5
23C
330
75
100
AcDbEntity
  8
Sichtbar (ISO)
100
AcDbCircle
 10
1025.801755633046
 20
1247.964044446189
 30
0.0
 40
2.750000000000001
  0
CIRCLE
  5
23D
330
75
100
AcDbEntity
  8
Sichtbar (ISO)
100
AcDbCircle
 10
1025.801755633046
 20
1260.964044446189
 30
0.0
 40
5.000000000000001
  0
LINE
  5
23E
330
75
100
AcDbEntity
  8
Sichtbar (ISO)
100
AcDbLine
 10
1013.801755633046
 20
1269.964044446189
 30
0.0
 11
1017.801755633046
 21
1269.964044446189
 31
0.0
  0
LINE
  5
23F
330
75
100
AcDbEntity
  8
Sichtbar (ISO)
100
AcDbLine
 10
1013.801755633046
 20
1269.964044446189
 30
0.0
 11
1013.801755633046
 21
1239.964044446189
 31
0.0
  0
LINE
  5
240
330
75
100
AcDbEntity
  8
Sichtbar (ISO)
100
AcDbLine
 10
1013.801755633046
 20
1239.964044446189
 30
0.0
 11
1017.801755633046
 21
1239.964044446189
 31
0.0
  0
LINE
  5
241
330
75
100
AcDbEntity
  8
Sichtbar (ISO)
100
AcDbLine
 10
1033.801755633046
 20
1239.964044446189
 30
0.0
 11
1037.801755633046
 21
1239.964044446189
 31
0.0
  0
LINE
  5
242
330
75
100
AcDbEntity
  8
Sichtbar (ISO)
100
AcDbLine
 10
1037.801755633046
 20
1239.964044446189
 30
0.0
 11
1037.801755633046
 21
1269.964044446189
 31
0.0
  0
LINE
  5
243
330
75
100
AcDbEntity
  8
Sichtbar (ISO)
100
AcDbLine
 10
1033.801755633046
 20
1269.964044446189
 30
0.0
 11
1037.801755633046
 21
1269.964044446189
 31
0.0
  0
LINE
  5
244
330
75
100
AcDbEntity
  8
Sichtbar (ISO)
100
AcDbLine
 10
1013.801755633046
 20
1272.764044446189
 30
0.0
 11
1013.801755633046
 21
1269.964044446189
 31
0.0
  0
LINE
  5
245
330
75
100
AcDbEntity
  8
Sichtbar (ISO)
100
AcDbLine
 10
1013.801755633046
 20
1276.964044446188
 30
0.0
 11
1013.801755633046
 21
1272.764044446189
 31
0.0
  0
LINE
  5
246
330
75
100
AcDbEntity
  8
Sichtbar (ISO)
100
AcDbLine
 10
1013.801755633046
 20
1286.964044446188
 30
0.0
 11
1013.801755633046
 21
1276.964044446188
 31
0.0
  0
LINE
  5
247
330
75
100
AcDbEntity
  8
Sichtbar (ISO)
100
AcDbLine
 10
1013.801755633046
 20
1295.964044446188
 30
0.0
 11
1013.801755633046
 21
1286.964044446188
 31
0.0
  0
LINE
  5
248
330
75
100
AcDbEntity
  8
Sichtbar (ISO)
100
AcDbLine
 10
1037.801755633046
 20
1269.964044446189
 30
0.0
 11
1037.801755633046
 21
1269.966546010645
 31
0.0
  0
LINE
  5
249
330
75
100
AcDbEntity
  8
Sichtbar (ISO)
100
AcDbLine
 10
1037.801755633046
 20
1276.734915661441
 30
0.0
 11
1037.801755633046
 21
1276.964044446188
 31
0.0
  0
LINE
  5
24A
330
75
100
AcDbEntity
  8
Sichtbar (ISO)
100
AcDbLine
 10
1013.801755633046
 20
1276.964044446188
 30
0.0
 11
1037.801755633046
 21
1276.964044446188
 31
0.0
  0
LINE
  5
24B
330
75
100
AcDbEntity
  8
Sichtbar (ISO)
100
AcDbLine
 10
1037.801755633046
 20
1276.964044446188
 30
0.0
 11
1037.801755633046
 21
1286.964044446188
 31
0.0
  0
LINE
  5
24C
330
75
100
AcDbEntity
  8
Sichtbar (ISO)
100
AcDbLine
 10
1013.801755633046
 20
1286.964044446188
 30
0.0
 11
1037.801755633046
 21
1286.964044446188
 31
0.0
  0
LINE
  5
24D
330
75
100
AcDbEntity
  8
Sichtbar (ISO)
100
AcDbLine
 10
1037.801755633046
 20
1286.964044446188
 30
0.0
 11
1037.801755633046
 21
1287.130711112855
 31
0.0
  0
LINE
  5
24E
330
75
100
AcDbEntity
  8
Sichtbar (ISO)
100
AcDbLine
 10
1033.801755633046
 20
1239.964044446189
 30
0.0
 11
1033.801755633046
 21
1275.964044446189
 31
0.0
  0
LINE
  5
24F
330
75
100
AcDbEntity
  8
Sichtbar (ISO)
100
AcDbLine
 10
1017.801755633046
 20
1239.964044446189
 30
0.0
 11
1033.801755633046
 21
1239.964044446189
 31
0.0
  0
LINE
  5
250
330
75
100
AcDbEntity
  8
Sichtbar (ISO)
100
AcDbLine
 10
1017.801755633046
 20
1275.964044446189
 30
0.0
 11
1017.801755633046
 21
1239.964044446189
 31
0.0
  0
LINE
  5
251
330
75
100
AcDbEntity
  8
Sichtbar (ISO)
100
AcDbLine
 10
1017.801755633046
 20
1275.964044446189
 30
0.0
 11
1033.801755633046
 21
1275.964044446189
 31
0.0
  0
CIRCLE
  5
252
330
75
100
AcDbEntity
  8
Sichtbar (ISO)
100
AcDbCircle
 10
1025.801755633046
 20
1062.964044446188
 30
0.0
 40
2.750000000000001
  0
CIRCLE
  5
253
330
75
100
AcDbEntity
  8
Sichtbar (ISO)
100
AcDbCircle
 10
1025.801755633046
 20
1075.964044446189
 30
0.0
 40
5.000000000000001
  0
LINE
  5
254
330
75
100
AcDbEntity
  8
Sichtbar (ISO)
100
AcDbLine
 10
1013.801755633046
 20
1084.964044446188
 30
0.0
 11
1017.801755633046
 21
1084.964044446188
 31
0.0
  0
LINE
  5
255
330
75
100
AcDbEntity
  8
Sichtbar (ISO)
100
AcDbLine
 10
1013.801755633046
 20
1084.964044446188
 30
0.0
 11
1013.801755633046
 21
1054.964044446188
 31
0.0
  0
LINE
  5
256
330
75
100
AcDbEntity
  8
Sichtbar (ISO)
100
AcDbLine
 10
1013.801755633046
 20
1054.964044446188
 30
0.0
 11
1017.801755633046
 21
1054.964044446188
 31
0.0
  0
LINE
  5
257
330
75
100
AcDbEntity
  8
Sichtbar (ISO)
100
AcDbLine
 10
1033.801755633046
 20
1054.964044446188
 30
0.0
 11
1037.801755633046
 21
1054.964044446188
 31
0.0
  0
LINE
  5
258
330
75
100
AcDbEntity
  8
Sichtbar (ISO)
100
AcDbLine
 10
1037.801755633046
 20
1054.964044446188
 30
0.0
 11
1037.801755633046
 21
1084.964044446188
 31
0.0
  0
LINE
  5
259
330
75
100
AcDbEntity
  8
Sichtbar (ISO)
100
AcDbLine
 10
1033.801755633046
 20
1084.964044446188
 30
0.0
 11
1037.801755633046
 21
1084.964044446188
 31
0.0
  0
LINE
  5
25A
330
75
100
AcDbEntity
  8
Sichtbar (ISO)
100
AcDbLine
 10
1013.801755633046
 20
1087.764044446188
 30
0.0
 11
1013.801755633046
 21
1084.964044446189
 31
0.0
  0
LINE
  5
25B
330
75
100
AcDbEntity
  8
Sichtbar (ISO)
100
AcDbLine
 10
1013.801755633046
 20
1091.964044446188
 30
0.0
 11
1013.801755633046
 21
1087.764044446188
 31
0.0
  0
LINE
  5
25C
330
75
100
AcDbEntity
  8
Sichtbar (ISO)
100
AcDbLine
 10
1013.801755633046
 20
1101.964044446188
 30
0.0
 11
1013.801755633046
 21
1091.964044446188
 31
0.0
  0
LINE
  5
25D
330
75
100
AcDbEntity
  8
Sichtbar (ISO)
100
AcDbLine
 10
1013.801755633046
 20
1110.964044446189
 30
0.0
 11
1013.801755633046
 21
1101.964044446188
 31
0.0
  0
LINE
  5
25E
330
75
100
AcDbEntity
  8
Sichtbar (ISO)
100
AcDbLine
 10
1037.801755633046
 20
1084.964044446188
 30
0.0
 11
1037.801755633046
 21
1084.966546010645
 31
0.0
  0
LINE
  5
25F
330
75
100
AcDbEntity
  8
Sichtbar (ISO)
100
AcDbLine
 10
1037.801755633046
 20
1091.734915661441
 30
0.0
 11
1037.801755633046
 21
1091.964044446188
 31
0.0
  0
LINE
  5
260
330
75
100
AcDbEntity
  8
Sichtbar (ISO)
100
AcDbLine
 10
1013.801755633046
 20
1091.964044446188
 30
0.0
 11
1037.801755633046
 21
1091.964044446188
 31
0.0
  0
LINE
  5
261
330
75
100
AcDbEntity
  8
Sichtbar (ISO)
100
AcDbLine
 10
1037.801755633046
 20
1091.964044446188
 30
0.0
 11
1037.801755633046
 21
1101.964044446188
 31
0.0
  0
LINE
  5
262
330
75
100
AcDbEntity
  8
Sichtbar (ISO)
100
AcDbLine
 10
1013.801755633046
 20
1101.964044446188
 30
0.0
 11
1037.801755633046
 21
1101.964044446188
 31
0.0
  0
LINE
  5
263
330
75
100
AcDbEntity
  8
Sichtbar (ISO)
100
AcDbLine
 10
1037.801755633046
 20
1101.964044446188
 30
0.0
 11
1037.801755633046
 21
1102.130711112855
 31
0.0
  0
LINE
  5
264
330
75
100
AcDbEntity
  8
Sichtbar (ISO)
100
AcDbLine
 10
1033.801755633046
 20
1054.964044446189
 30
0.0
 11
1033.801755633046
 21
1090.964044446189
 31
0.0
  0
LINE
  5
265
330
75
100
AcDbEntity
  8
Sichtbar (ISO)
100
AcDbLine
 10
1017.801755633046
 20
1054.964044446189
 30
0.0
 11
1033.801755633046
 21
1054.964044446189
 31
0.0
  0
LINE
  5
266
330
75
100
AcDbEntity
  8
Sichtbar (ISO)
100
AcDbLine
 10
1017.801755633046
 20
1090.964044446189
 30
0.0
 11
1017.801755633046
 21
1054.964044446189
 31
0.0
  0
LINE
  5
267
330
75
100
AcDbEntity
  8
Sichtbar (ISO)
100
AcDbLine
 10
1017.801755633046
 20
1090.964044446189
 30
0.0
 11
1033.801755633046
 21
1090.964044446189
 31
0.0
  0
ENDSEC
  0
SECTION
  2
OBJECTS
  0
DICTIONARY
  5
C
330
0
100
AcDbDictionary
281
     1
  3
ACAD_COLOR
350
6B
  3
ACAD_GROUP
350
D
  3
ACAD_LAYOUT
350
6A
  3
ACAD_MATERIAL
350
10
  3
ACAD_MLEADERSTYLE
350
6E
  3
ACAD_MLINESTYLE
350
67
  3
ACAD_PLOTSETTINGS
350
69
  3
ACAD_PLOTSTYLENAME
350
E
  3
ACAD_SCALELIST
350
3A
  3
ACAD_TABLESTYLE
350
6C
  3
ACAD_VISUALSTYLE
350
29
  3
ACDB_RECOMPOSE_DATA
350
7F
  3
AcDbVariableDictionary
350
80
  0
DICTIONARY
  5
291
330
8
100
AcDbDictionary
280
     1
281
     1
  0
DICTIONARY
  5
269
330
192
100
AcDbDictionary
280
     1
281
     1
  3
ACAD_MLATT
360
2AB
  0
DICTIONARY
  5
26B
330
194
100
AcDbDictionary
280
     1
281
     1
  3
ACAD_MLATT
360
2AC
  0
DICTIONARY
  5
26D
330
195
100
AcDbDictionary
280
     1
281
     1
  3
ACAD_MLATT
360
2AD
  0
DICTIONARY
  5
26F
330
196
100
AcDbDictionary
280
     1
281
     1
  3
ACAD_MLATT
360
2AE
  0
DICTIONARY
  5
271
330
197
100
AcDbDictionary
280
     1
281
     1
  3
ACAD_MLATT
360
2AF
  0
DICTIONARY
  5
273
330
198
100
AcDbDictionary
280
     1
281
     1
  3
ACAD_MLATT
360
2B0
  0
DICTIONARY
  5
275
330
199
100
AcDbDictionary
280
     1
281
     1
  3
ACAD_MLATT
360
2B1
  0
DICTIONARY
  5
277
330
19A
100
AcDbDictionary
280
     1
281
     1
  3
ACAD_MLATT
360
2B2
  0
DICTIONARY
  5
279
330
19B
100
AcDbDictionary
280
     1
281
     1
  3
ACAD_MLATT
360
2B3
  0
DICTIONARY
  5
27B
330
19C
100
AcDbDictionary
280
     1
281
     1
  3
ACAD_MLATT
360
2B4
  0
DICTIONARY
  5
6B
102
{ACAD_REACTORS
330
C
102
}
330
C
100
AcDbDictionary
281
     1
  0
DICTIONARY
  5
D
102
{ACAD_REACTORS
330
C
102
}
330
C
100
AcDbDictionary
281
     1
  0
DICTIONARY
  5
6A
102
{ACAD_REACTORS
330
C
102
}
330
C
100
AcDbDictionary
281
     1
  3
Layout1
350
74
  3
Layout2
350
7C
  3
Model
350
78
  0
DICTIONARY
  5
10
102
{ACAD_REACTORS
330
C
102
}
330
C
100
AcDbDictionary
281
     1
  3
ByBlock
350
19
  3
ByLayer
350
11
  3
Global
350
21
  0
DICTIONARY
  5
6E
102
{ACAD_REACTORS
330
C
102
}
330
C
100
AcDbDictionary
281
     1
  3
Standard
350
6F
  0
DICTIONARY
  5
67
102
{ACAD_REACTORS
330
C
102
}
330
C
100
AcDbDictionary
281
     1
  3
Standard
350
68
  0
DICTIONARY
  5
69
102
{ACAD_REACTORS
330
C
102
}
330
C
100
AcDbDictionary
281
     1
  0
ACDBDICTIONARYWDFLT
  5
E
102
{ACAD_REACTORS
330
C
102
}
330
C
100
AcDbDictionary
281
     1
  3
Normal
350
F
100
AcDbDictionaryWithDefault
340
F
  0
DICTIONARY
  5
3A
102
{ACAD_REACTORS
330
C
102
}
330
C
100
AcDbDictionary
281
     1
  3
A0
350
3B
  3
A1
350
3C
  3
A2
350
3D
  3
A3
350
3E
  3
A4
350
3F
  3
A5
350
40
  3
A6
350
41
  3
A7
350
42
  3
A8
350
43
  3
A9
350
44
  3
B0
350
45
  3
B1
350
46
  3
B2
350
47
  3
B3
350
48
  3
B4
350
49
  3
B5
350
4A
  3
B6
350
4B
  3
B7
350
4C
  3
B8
350
4D
  3
B9
350
4E
  3
C0
350
4F
  3
C1
350
50
  3
C2
350
51
  3
C3
350
52
  3
C4
350
53
  3
C5
350
54
  3
C6
350
55
  3
C7
350
56
  3
C8
350
57
  3
C9
350
58
  3
D0
350
59
  3
D1
350
5A
  3
D2
350
5B
  0
DICTIONARY
  5
6C
102
{ACAD_REACTORS
330
C
102
}
330
C
100
AcDbDictionary
281
     1
  3
Standard
350
6D
  0
DICTIONARY
  5
29
102
{ACAD_REACTORS
330
C
102
}
330
C
100
AcDbDictionary
281
     1
  3
2dWireframe
350
2F
  3
3D Hidden
350
31
  3
3dWireframe
350
30
  3
Basic
350
2E
  3
Brighten
350
35
  3
ColorChange
350
39
  3
Conceptual
350
32
  3
Dim
350
34
  3
Facepattern
350
38
  3
Flat
350
2A
  3
FlatWithEdges
350
2B
  3
Gouraud
350
2C
  3
GouraudWithEdges
350
2D
  3
Linepattern
350
37
  3
Realistic
350
33
  3
Thicken
350
36
  0
XRECORD
  5
7F
102
{ACAD_REACTORS
330
C
102
}
330
C
100
AcDbXrecord
280
     1
 90
        1
330
6D
330
192
330
194
330
195
330
196
330
197
330
198
330
199
330
19A
330
19B
330
19C
  0
DICTIONARY
  5
80
102
{ACAD_REACTORS
330
C
102
}
330
C
100
AcDbDictionary
281
     1
  3
CANNOSCALE
350
83
  3
CMLEADERSTYLE
350
82
  3
CTABLESTYLE
350
81
  3
LAYEREVAL
350
299
  3
LAYERNOTIFY
350
29A
  3
LIGHTINGUNITS
350
298
  3
MSLTSCALE
350
297
  0
XRECORD
  5
2AB
102
{ACAD_REACTORS
330
269
102
}
330
269
100
AcDbXrecord
280
     1
 70
     4
 70
     0
 70
     0
 40
1.0
  2
Blattnummer
  1
Embedded Object
 10
280.5009205960757
 20
112.5235732033248
 30
0.0
 40
5.0
 41
0.0
 46
0.0
 71
     5
 72
     5
  1
1 
  7
Notiztext (DIN)
 73
     1
 44
1.0
  0
XRECORD
  5
2AC
102
{ACAD_REACTORS
330
26B
102
}
330
26B
100
AcDbXrecord
280
     1
 70
     4
 70
     0
 70
     0
 40
1.0
  2
Blattgröße
  1
Embedded Object
 10
280.5009205960757
 20
106.1485732033249
 30
0.0
 40
2.5
 41
0.0
 46
0.0
 71
     5
 72
     5
  1
A2
  7
Notiztext (DIN)
 73
     1
 44
1.0
  0
XRECORD
  5
2AD
102
{ACAD_REACTORS
330
26D
102
}
330
26D
100
AcDbXrecord
280
     1
 70
     4
 70
     0
 70
     0
 40
1.0
  2
TITEL
  1
Embedded Object
 10
198.2009205960756
 20
127.4530603828121
 30
0.0
 40
5.0
 41
0.0
 46
0.0
 71
     4
 72
     5
  1

  7
Notiztext (DIN)
 73
     1
 44
1.0
  0
XRECORD
  5
2AE
102
{ACAD_REACTORS
330
26F
102
}
330
26F
100
AcDbXrecord
280
     1
 70
     4
 70
     0
 70
     0
 40
1.0
  2
BAUTEILNUMMER
  1
Embedded Object
 10
198.2009205960756
 20
110.453060382812
 30
0.0
 40
5.0
 41
0.0
 46
0.0
 71
     4
 72
     5
  1

  7
Notiztext (DIN)
 73
     1
 44
1.0
  0
XRECORD
  5
2AF
102
{ACAD_REACTORS
330
271
102
}
330
271
100
AcDbXrecord
280
     1
 70
     4
 70
     0
 70
     0
 40
1.0
  2
CREATION_DATE
  1
Embedded Object
 10
164.4009205960756
 20
130.5780603828121
 30
0.0
 40
2.000000029802322
 41
0.0
 46
0.0
 71
     7
 72
     5
  1
22.11.2010
  7
Notiztext (DIN)
 73
     1
 44
1.0
  0
XRECORD
  5
2B0
102
{ACAD_REACTORS
330
273
102
}
330
273
100
AcDbXrecord
280
     1
 70
     4
 70
     0
 70
     0
 40
1.0
  2
KONTROLLDATUM
  1
Embedded Object
 10
164.4009205960756
 20
126.328060382812
 30
0.0
 40
2.000000029802322
 41
0.0
 46
0.0
 71
     7
 72
     5
  1

  7
Notiztext (DIN)
 73
     1
 44
1.0
  0
XRECORD
  5
2B1
102
{ACAD_REACTORS
330
275
102
}
330
275
100
AcDbXrecord
280
     1
 70
     4
 70
     0
 70
     0
 40
1.0
  2
GENEHM.DAT._KONSTR.
  1
Embedded Object
 10
164.4009205960756
 20
122.078060382812
 30
0.0
 40
2.000000029802322
 41
0.0
 46
0.0
 71
     7
 72
     5
  1

  7
Notiztext (DIN)
 73
     1
 44
1.0
  0
XRECORD
  5
2B2
102
{ACAD_REACTORS
330
277
102
}
330
277
100
AcDbXrecord
280
     1
 70
     4
 70
     0
 70
     0
 40
1.0
  2
AUTOR
  1
Embedded Object
 10
180.0009205960756
 20
130.5780603828121
 30
0.0
 40
2.000000029802322
 41
0.0
 46
0.0
 71
     7
 72
     5
  1
rauch
  7
Notiztext (DIN)
 73
     1
 44
1.0
  0
XRECORD
  5
2B3
102
{ACAD_REACTORS
330
279
102
}
330
279
100
AcDbXrecord
280
     1
 70
     4
 70
     0
 70
     0
 40
1.0
  2
KONSTR._GEN._VON
  1
Embedded Object
 10
180.0009205960756
 20
122.078060382812
 30
0.0
 40
2.000000029802322
 41
0.0
 46
0.0
 71
     7
 72
     5
  1

  7
Notiztext (DIN)
 73
     1
 44
1.0
  0
XRECORD
  5
2B4
102
{ACAD_REACTORS
330
27B
102
}
330
27B
100
AcDbXrecord
280
     1
 70
     4
 70
     0
 70
     0
 40
1.0
  2
KONTROLLIERT_VON
  1
Embedded Object
 10
180.0009205960756
 20
126.328060382812
 30
0.0
 40
2.000000029802322
 41
0.0
 46
0.0
 71
     7
 72
     5
  1

  7
Notiztext (DIN)
 73
     1
 44
1.0
  0
LAYOUT
  5
74
102
{ACAD_REACTORS
330
6A
102
}
330
6A
100
AcDbPlotSettings
  1

  2

  4

  6

 40
0.0
 41
0.0
 42
0.0
 43
0.0
 44
0.0
 45
0.0
 46
0.0
 47
0.0
 48
0.0
 49
0.0
140
0.0
141
0.0
142
1.0
143
1.0
 70
   688
 72
     0
 73
     0
 74
     5
  7

 75
    16
147
1.0
 76
     0
 77
     2
 78
   300
148
0.0
149
0.0
100
AcDbLayout
  1
Layout1
 70
     1
 71
     1
 10
0.0
 20
0.0
 11
2970.0
 21
2100.0
 12
0.0
 22
0.0
 32
0.0
 14
0.0
 24
0.0
 34
0.0
 15
2970.0
 25
2100.0
 35
0.0
146
0.0
 13
0.0
 23
0.0
 33
0.0
 16
1.0
 26
0.0
 36
0.0
 17
0.0
 27
1.0
 37
0.0
 76
     0
330
71
  0
LAYOUT
  5
7C
102
{ACAD_REACTORS
330
6A
102
}
330
6A
100
AcDbPlotSettings
  1

  2

  4

  6

 40
0.0
 41
0.0
 42
0.0
 43
0.0
 44
0.0
 45
0.0
 46
0.0
 47
0.0
 48
0.0
 49
0.0
140
0.0
141
0.0
142
1.0
143
1.0
 70
   688
 72
     0
 73
     0
 74
     5
  7

 75
    16
147
1.0
 76
     0
 77
     2
 78
   300
148
0.0
149
0.0
100
AcDbLayout
  1
Layout2
 70
     1
 71
     2
 10
0.0
 20
0.0
 11
12.0
 21
9.0
 12
0.0
 22
0.0
 32
0.0
 14
0.0
 24
0.0
 34
0.0
 15
0.0
 25
0.0
 35
0.0
146
0.0
 13
0.0
 23
0.0
 33
0.0
 16
1.0
 26
0.0
 36
0.0
 17
0.0
 27
1.0
 37
0.0
 76
     0
330
79
  0
LAYOUT
  5
78
102
{ACAD_REACTORS
330
6A
102
}
330
6A
100
AcDbPlotSettings
  1

  2

  4

  6

 40
0.0
 41
0.0
 42
0.0
 43
0.0
 44
0.0
 45
0.0
 46
0.0
 47
0.0
 48
0.0
 49
0.0
140
0.0
141
0.0
142
1.0
143
1.0
 70
  1712
 72
     0
 73
     0
 74
     0
  7

 75
     0
147
1.0
 76
     0
 77
     2
 78
   300
148
0.0
149
0.0
100
AcDbLayout
  1
Model
 70
     1
 71
     0
 10
0.0
 20
0.0
 11
12.0
 21
9.0
 12
0.0
 22
0.0
 32
0.0
 14
0.0
 24
0.0
 34
0.0
 15
0.0
 25
0.0
 35
0.0
146
0.0
 13
0.0
 23
0.0
 33
0.0
 16
1.0
 26
0.0
 36
0.0
 17
0.0
 27
1.0
 37
0.0
 76
     0
330
75
331
5F
  0
MATERIAL
  5
19
102
{ACAD_XDICTIONARY
360
1A
102
}
102
{ACAD_REACTORS
330
10
102
}
330
10
100
AcDbMaterial
  1
ByBlock
 72
     0
 43
0.0208333333333333
 43
0.0
 43
0.0
 43
0.0
 43
0.0
 43
0.0208333333333333
 43
0.0
 43
0.0
 43
0.0
 43
0.0
 43
1.0
 43
0.0
 43
0.0
 43
0.0
 43
0.0
 43
1.0
 77
     0
 47
0.0208333333333333
 47
0.0
 47
0.0
 47
0.0
 47
0.0
 47
0.0208333333333333
 47
0.0
 47
0.0
 47
0.0
 47
0.0
 47
1.0
 47
0.0
 47
0.0
 47
0.0
 47
0.0
 47
1.0
171
     0
 49
0.0208333333333333
 49
0.0
 49
0.0
 49
0.0
 49
0.0
 49
0.0208333333333333
 49
0.0
 49
0.0
 49
0.0
 49
0.0
 49
1.0
 49
0.0
 49
0.0
 49
0.0
 49
0.0
 49
1.0
175
     0
142
0.0208333333333333
142
0.0
142
0.0
142
0.0
142
0.0
142
0.0208333333333333
142
0.0
142
0.0
142
0.0
142
0.0
142
1.0
142
0.0
142
0.0
142
0.0
142
0.0
142
1.0
179
     0
144
0.0208333333333333
144
0.0
144
0.0
144
0.0
144
0.0
144
0.0208333333333333
144
0.0
144
0.0
144
0.0
144
0.0
144
1.0
144
0.0
144
0.0
144
0.0
144
0.0
144
1.0
147
0.0208333333333333
147
0.0
147
0.0
147
0.0
147
0.0
147
0.0208333333333333
147
0.0
147
0.0
147
0.0
147
0.0
147
1.0
147
0.0
147
0.0
147
0.0
147
0.0
147
1.0
  0
MATERIAL
  5
11
102
{ACAD_XDICTIONARY
360
12
102
}
102
{ACAD_REACTORS
330
10
102
}
330
10
100
AcDbMaterial
  1
ByLayer
 72
     0
 43
0.0208333333333333
 43
0.0
 43
0.0
 43
0.0
 43
0.0
 43
0.0208333333333333
 43
0.0
 43
0.0
 43
0.0
 43
0.0
 43
1.0
 43
0.0
 43
0.0
 43
0.0
 43
0.0
 43
1.0
 77
     0
 47
0.0208333333333333
 47
0.0
 47
0.0
 47
0.0
 47
0.0
 47
0.0208333333333333
 47
0.0
 47
0.0
 47
0.0
 47
0.0
 47
1.0
 47
0.0
 47
0.0
 47
0.0
 47
0.0
 47
1.0
171
     0
 49
0.0208333333333333
 49
0.0
 49
0.0
 49
0.0
 49
0.0
 49
0.0208333333333333
 49
0.0
 49
0.0
 49
0.0
 49
0.0
 49
1.0
 49
0.0
 49
0.0
 49
0.0
 49
0.0
 49
1.0
175
     0
142
0.0208333333333333
142
0.0
142
0.0
142
0.0
142
0.0
142
0.0208333333333333
142
0.0
142
0.0
142
0.0
142
0.0
142
1.0
142
0.0
142
0.0
142
0.0
142
0.0
142
1.0
179
     0
144
0.0208333333333333
144
0.0
144
0.0
144
0.0
144
0.0
144
0.0208333333333333
144
0.0
144
0.0
144
0.0
144
0.0
144
1.0
144
0.0
144
0.0
144
0.0
144
0.0
144
1.0
147
0.0208333333333333
147
0.0
147
0.0
147
0.0
147
0.0
147
0.0208333333333333
147
0.0
147
0.0
147
0.0
147
0.0
147
1.0
147
0.0
147
0.0
147
0.0
147
0.0
147
1.0
  0
MATERIAL
  5
21
102
{ACAD_XDICTIONARY
360
22
102
}
102
{ACAD_REACTORS
330
10
102
}
330
10
100
AcDbMaterial
  1
Global
 72
     0
 43
0.0208333333333333
 43
0.0
 43
0.0
 43
0.0
 43
0.0
 43
0.0208333333333333
 43
0.0
 43
0.0
 43
0.0
 43
0.0
 43
1.0
 43
0.0
 43
0.0
 43
0.0
 43
0.0
 43
1.0
 77
     0
 47
0.0208333333333333
 47
0.0
 47
0.0
 47
0.0
 47
0.0
 47
0.0208333333333333
 47
0.0
 47
0.0
 47
0.0
 47
0.0
 47
1.0
 47
0.0
 47
0.0
 47
0.0
 47
0.0
 47
1.0
171
     0
 49
0.0208333333333333
 49
0.0
 49
0.0
 49
0.0
 49
0.0
 49
0.0208333333333333
 49
0.0
 49
0.0
 49
0.0
 49
0.0
 49
1.0
 49
0.0
 49
0.0
 49
0.0
 49
0.0
 49
1.0
175
     0
142
0.0208333333333333
142
0.0
142
0.0
142
0.0
142
0.0
142
0.0208333333333333
142
0.0
142
0.0
142
0.0
142
0.0
142
1.0
142
0.0
142
0.0
142
0.0
142
0.0
142
1.0
179
     0
144
0.0208333333333333
144
0.0
144
0.0
144
0.0
144
0.0
144
0.0208333333333333
144
0.0
144
0.0
144
0.0
144
0.0
144
1.0
144
0.0
144
0.0
144
0.0
144
0.0
144
1.0
147
0.0208333333333333
147
0.0
147
0.0
147
0.0
147
0.0
147
0.0208333333333333
147
0.0
147
0.0
147
0.0
147
0.0
147
1.0
147
0.0
147
0.0
147
0.0
147
0.0
147
1.0
  0
MLEADERSTYLE
  5
6F
102
{ACAD_REACTORS
330
6E
102
}
330
6E
100
AcDbMLeaderStyle
170
     2
171
     1
172
     0
 90
        2
 40
0.0
 41
0.0
173
     1
 91
-1056964608
340
63
 92
       -2
290
     1
 42
0.09
291
     1
 43
0.36
  3
Standard
 44
0.18
300

342
5D
174
     1
178
     6
175
     1
176
     0
 93
-1056964608
 45
0.18
292
     0
297
     0
 46
0.18
 94
-1056964608
 47
1.0
 49
1.0
140
1.0
293
     1
141
0.0
294
     1
177
     0
142
1.0
295
     0
296
     0
143
0.125
1001
ACAD_MLEADERVER
1070
     2
  0
MLINESTYLE
  5
68
102
{ACAD_REACTORS
330
67
102
}
330
67
100
AcDbMlineStyle
  2
STANDARD
 70
     0
  3

 62
   256
 51
90.0
 52
90.0
 71
     2
 49
0.5
 62
   256
  6
BYLAYER
 49
-0.5
 62
   256
  6
BYLAYER
  0
ACDBPLACEHOLDER
  5
F
102
{ACAD_REACTORS
330
E
102
}
330
E
  0
SCALE
  5
3B
102
{ACAD_REACTORS
330
3A
102
}
330
3A
100
AcDbScale
 70
     0
300
1:1
140
1.0
141
1.0
290
     1
  0
SCALE
  5
3C
102
{ACAD_REACTORS
330
3A
102
}
330
3A
100
AcDbScale
 70
     0
300
1:2
140
1.0
141
2.0
290
     0
  0
SCALE
  5
3D
102
{ACAD_REACTORS
330
3A
102
}
330
3A
100
AcDbScale
 70
     0
300
1:4
140
1.0
141
4.0
290
     0
  0
SCALE
  5
3E
102
{ACAD_REACTORS
330
3A
102
}
330
3A
100
AcDbScale
 70
     0
300
1:5
140
1.0
141
5.0
290
     0
  0
SCALE
  5
3F
102
{ACAD_REACTORS
330
3A
102
}
330
3A
100
AcDbScale
 70
     0
300
1:8
140
1.0
141
8.0
290
     0
  0
SCALE
  5
40
102
{ACAD_REACTORS
330
3A
102
}
330
3A
100
AcDbScale
 70
     0
300
1:10
140
1.0
141
10.0
290
     0
  0
SCALE
  5
41
102
{ACAD_REACTORS
330
3A
102
}
330
3A
100
AcDbScale
 70
     0
300
1:16
140
1.0
141
16.0
290
     0
  0
SCALE
  5
42
102
{ACAD_REACTORS
330
3A
102
}
330
3A
100
AcDbScale
 70
     0
300
1:20
140
1.0
141
20.0
290
     0
  0
SCALE
  5
43
102
{ACAD_REACTORS
330
3A
102
}
330
3A
100
AcDbScale
 70
     0
300
1:30
140
1.0
141
30.0
290
     0
  0
SCALE
  5
44
102
{ACAD_REACTORS
330
3A
102
}
330
3A
100
AcDbScale
 70
     0
300
1:40
140
1.0
141
40.0
290
     0
  0
SCALE
  5
45
102
{ACAD_REACTORS
330
3A
102
}
330
3A
100
AcDbScale
 70
     0
300
1:50
140
1.0
141
50.0
290
     0
  0
SCALE
  5
46
102
{ACAD_REACTORS
330
3A
102
}
330
3A
100
AcDbScale
 70
     0
300
1:100
140
1.0
141
100.0
290
     0
  0
SCALE
  5
47
102
{ACAD_REACTORS
330
3A
102
}
330
3A
100
AcDbScale
 70
     0
300
2:1
140
2.0
141
1.0
290
     0
  0
SCALE
  5
48
102
{ACAD_REACTORS
330
3A
102
}
330
3A
100
AcDbScale
 70
     0
300
4:1
140
4.0
141
1.0
290
     0
  0
SCALE
  5
49
102
{ACAD_REACTORS
330
3A
102
}
330
3A
100
AcDbScale
 70
     0
300
8:1
140
8.0
141
1.0
290
     0
  0
SCALE
  5
4A
102
{ACAD_REACTORS
330
3A
102
}
330
3A
100
AcDbScale
 70
     0
300
10:1
140
10.0
141
1.0
290
     0
  0
SCALE
  5
4B
102
{ACAD_REACTORS
330
3A
102
}
330
3A
100
AcDbScale
 70
     0
300
100:1
140
100.0
141
1.0
290
     0
  0
SCALE
  5
4C
102
{ACAD_REACTORS
330
3A
102
}
330
3A
100
AcDbScale
 70
     0
300
1/128" = 1'-0"
140
0.0078125
141
12.0
290
     0
  0
SCALE
  5
4D
102
{ACAD_REACTORS
330
3A
102
}
330
3A
100
AcDbScale
 70
     0
300
1/64" = 1'-0"
140
0.015625
141
12.0
290
     0
  0
SCALE
  5
4E
102
{ACAD_REACTORS
330
3A
102
}
330
3A
100
AcDbScale
 70
     0
300
1/32" = 1'-0"
140
0.03125
141
12.0
290
     0
  0
SCALE
  5
4F
102
{ACAD_REACTORS
330
3A
102
}
330
3A
100
AcDbScale
 70
     0
300
1/16" = 1'-0"
140
0.0625
141
12.0
290
     0
  0
SCALE
  5
50
102
{ACAD_REACTORS
330
3A
102
}
330
3A
100
AcDbScale
 70
     0
300
3/32" = 1'-0"
140
0.09375
141
12.0
290
     0
  0
SCALE
  5
51
102
{ACAD_REACTORS
330
3A
102
}
330
3A
100
AcDbScale
 70
     0
300
1/8" = 1'-0"
140
0.125
141
12.0
290
     0
  0
SCALE
  5
52
102
{ACAD_REACTORS
330
3A
102
}
330
3A
100
AcDbScale
 70
     0
300
3/16" = 1'-0"
140
0.1875
141
12.0
290
     0
  0
SCALE
  5
53
102
{ACAD_REACTORS
330
3A
102
}
330
3A
100
AcDbScale
 70
     0
300
1/4" = 1'-0"
140
0.25
141
12.0
290
     0
  0
SCALE
  5
54
102
{ACAD_REACTORS
330
3A
102
}
330
3A
100
AcDbScale
 70
     0
300
3/8" = 1'-0"
140
0.375
141
12.0
290
     0
  0
SCALE
  5
55
102
{ACAD_REACTORS
330
3A
102
}
330
3A
100
AcDbScale
 70
     0
300
1/2" = 1'-0"
140
0.5
141
12.0
290
     0
  0
SCALE
  5
56
102
{ACAD_REACTORS
330
3A
102
}
330
3A
100
AcDbScale
 70
     0
300
3/4" = 1'-0"
140
0.75
141
12.0
290
     0
  0
SCALE
  5
57
102
{ACAD_REACTORS
330
3A
102
}
330
3A
100
AcDbScale
 70
     0
300
1" = 1'-0"
140
1.0
141
12.0
290
     0
  0
SCALE
  5
58
102
{ACAD_REACTORS
330
3A
102
}
330
3A
100
AcDbScale
 70
     0
300
1-1/2" = 1'-0"
140
1.5
141
12.0
290
     0
  0
SCALE
  5
59
102
{ACAD_REACTORS
330
3A
102
}
330
3A
100
AcDbScale
 70
     0
300
3" = 1'-0"
140
3.0
141
12.0
290
     0
  0
SCALE
  5
5A
102
{ACAD_REACTORS
330
3A
102
}
330
3A
100
AcDbScale
 70
     0
300
6" = 1'-0"
140
6.0
141
12.0
290
     0
  0
SCALE
  5
5B
102
{ACAD_REACTORS
330
3A
102
}
330
3A
100
AcDbScale
 70
     0
300
1'-0" = 1'-0"
140
12.0
141
12.0
290
     0
  0
TABLESTYLE
  5
6D
102
{ACAD_XDICTIONARY
360
7D
102
}
102
{ACAD_REACTORS
330
6C
102
}
330
6C
100
AcDbTableStyle
  3
Standard
 70
     0
 71
     0
 40
0.06
 41
0.06
280
     0
281
     0
  7
Norm
140
0.18
170
     2
 62
     0
 63
     7
283
     0
274
    -2
284
     1
 64
     0
275
    -2
285
     1
 65
     0
276
    -2
286
     1
 66
     0
277
    -2
287
     1
 67
     0
278
    -2
288
     1
 68
     0
279
    -2
289
     1
 69
     0
  7
Norm
140
0.25
170
     5
 62
     0
 63
     7
283
     0
274
    -2
284
     1
 64
     0
275
    -2
285
     1
 65
     0
276
    -2
286
     1
 66
     0
277
    -2
287
     1
 67
     0
278
    -2
288
     1
 68
     0
279
    -2
289
     1
 69
     0
  7
Norm
140
0.18
170
     5
 62
     0
 63
     7
283
     0
274
    -2
284
     1
 64
     0
275
    -2
285
     1
 65
     0
276
    -2
286
     1
 66
     0
277
    -2
287
     1
 67
     0
278
    -2
288
     1
 68
     0
279
    -2
289
     1
 69
     0
  0
VISUALSTYLE
  5
2F
102
{ACAD_REACTORS
330
29
102
}
330
29
100
AcDbVisualStyle
  2
2dWireframe
 70
     4
 71
     0
 72
     2
 73
     0
 90
        0
 40
-0.6
 41
-30.0
 62
     5
 63
     7
421
 16777215
 74
     1
 91
        4
 64
     7
 65
   257
 75
     1
175
     1
 42
1.0
 92
        0
 66
   257
 43
1.0
 76
     1
 77
     6
 78
     2
 67
     7
 79
     5
170
     0
171
     0
290
     0
174
     0
 93
        1
 44
0.0
173
     0
291
     0
 45
0.0
1001
ACAD
1000
AcDbSavedByObjectVersion
1070
     0
  0
VISUALSTYLE
  5
31
102
{ACAD_REACTORS
330
29
102
}
330
29
100
AcDbVisualStyle
  2
3D Hidden
 70
     6
 71
     1
 72
     2
 73
     2
 90
        0
 40
-0.6
 41
-30.0
 62
     5
 63
     7
421
 16777215
 74
     2
 91
        2
 64
     7
 65
   257
 75
     2
175
     1
 42
40.0
 92
        0
 66
   257
 43
1.0
 76
     1
 77
     6
 78
     2
 67
     7
 79
     3
170
     0
171
     0
290
     0
174
     0
 93
        1
 44
0.0
173
     0
291
     0
 45
0.0
1001
ACAD
1000
AcDbSavedByObjectVersion
1070
     0
  0
VISUALSTYLE
  5
30
102
{ACAD_REACTORS
330
29
102
}
330
29
100
AcDbVisualStyle
  2
3dWireframe
 70
     5
 71
     0
 72
     2
 73
     0
 90
        0
 40
-0.6
 41
-30.0
 62
     5
 63
     7
421
 16777215
 74
     1
 91
        4
 64
     7
 65
   257
 75
     1
175
     1
 42
1.0
 92
        0
 66
   257
 43
1.0
 76
     1
 77
     6
 78
     2
 67
     7
 79
     5
170
     0
171
     0
290
     0
174
     0
 93
        1
 44
0.0
173
     0
291
     0
 45
0.0
1001
ACAD
1000
AcDbSavedByObjectVersion
1070
     0
  0
VISUALSTYLE
  5
2E
102
{ACAD_REACTORS
330
29
102
}
330
29
100
AcDbVisualStyle
  2
Basic
 70
     7
 71
     1
 72
     0
 73
     1
 90
        0
 40
-0.6
 41
-30.0
 62
     5
 63
     7
421
 16777215
 74
     0
 91
        4
 64
     7
 65
   257
 75
     1
175
     1
 42
1.0
 92
        8
 66
     7
 43
1.0
 76
     1
 77
     6
 78
     2
 67
     7
 79
     5
170
     0
171
     0
290
     0
174
     0
 93
        1
 44
0.0
173
     0
291
     1
 45
0.0
1001
ACAD
1000
AcDbSavedByObjectVersion
1070
     0
  0
VISUALSTYLE
  5
35
102
{ACAD_REACTORS
330
29
102
}
330
29
100
AcDbVisualStyle
  2
Brighten
 70
    12
 71
     2
 72
     2
 73
     0
 90
        0
 40
-0.6
 41
-30.0
 62
     5
 63
     7
421
 16777215
 74
     1
 91
        4
 64
     7
 65
   257
 75
     1
175
     1
 42
1.0
 92
        8
 66
     7
 43
1.0
 76
     1
 77
     6
 78
     2
 67
     7
 79
     5
170
     0
171
     0
290
     0
174
     0
 93
        1
 44
50.0
173
     0
291
     1
 45
0.0
1001
ACAD
1000
AcDbSavedByObjectVersion
1070
     0
  0
VISUALSTYLE
  5
39
102
{ACAD_REACTORS
330
29
102
}
330
29
100
AcDbVisualStyle
  2
ColorChange
 70
    16
 71
     2
 72
     2
 73
     3
 90
        0
 40
-0.6
 41
-30.0
 62
     5
 63
     8
421
  8421504
 74
     1
 91
        4
 64
     7
 65
   257
 75
     1
175
     1
 42
1.0
 92
        8
 66
     8
424
  8421504
 43
1.0
 76
     1
 77
     6
 78
     2
 67
     7
 79
     5
170
     0
171
     0
290
     0
174
     0
 93
        1
 44
0.0
173
     0
291
     1
 45
0.0
1001
ACAD
1000
AcDbSavedByObjectVersion
1070
     0
  0
VISUALSTYLE
  5
32
102
{ACAD_REACTORS
330
29
102
}
330
29
100
AcDbVisualStyle
  2
Conceptual
 70
     9
 71
     3
 72
     2
 73
     0
 90
        0
 40
-0.6
 41
-30.0
 62
     5
 63
     7
421
 16777215
 74
     2
 91
        2
 64
     7
 65
   257
 75
     1
175
     1
 42
40.0
 92
        8
 66
     7
 43
1.0
 76
     1
 77
     6
 78
     2
 67
     7
 79
     3
170
     0
171
     0
290
     0
174
     0
 93
        1
 44
0.0
173
     0
291
     0
 45
0.0
1001
ACAD
1000
AcDbSavedByObjectVersion
1070
     0
  0
VISUALSTYLE
  5
34
102
{ACAD_REACTORS
330
29
102
}
330
29
100
AcDbVisualStyle
  2
Dim
 70
    11
 71
     2
 72
     2
 73
     0
 90
        0
 40
-0.6
 41
-30.0
 62
     5
 63
     7
421
 16777215
 74
     1
 91
        4
 64
     7
 65
   257
 75
     1
175
     1
 42
1.0
 92
        8
 66
     7
 43
1.0
 76
     1
 77
     6
 78
     2
 67
     7
 79
     5
170
     0
171
     0
290
     0
174
     0
 93
        1
 44
-50.0
173
     0
291
     1
 45
0.0
1001
ACAD
1000
AcDbSavedByObjectVersion
1070
     0
  0
VISUALSTYLE
  5
38
102
{ACAD_REACTORS
330
29
102
}
330
29
100
AcDbVisualStyle
  2
Facepattern
 70
    15
 71
     2
 72
     2
 73
     0
 90
        0
 40
-0.6
 41
-30.0
 62
     5
 63
     7
421
 16777215
 74
     1
 91
        4
 64
     7
 65
   257
 75
     1
175
     1
 42
1.0
 92
        8
 66
     7
 43
1.0
 76
     1
 77
     6
 78
     2
 67
     7
 79
     5
170
     0
171
     0
290
     0
174
     0
 93
        1
 44
0.0
173
     0
291
     1
 45
0.0
1001
ACAD
1000
AcDbSavedByObjectVersion
1070
     0
  0
VISUALSTYLE
  5
2A
102
{ACAD_REACTORS
330
29
102
}
330
29
100
AcDbVisualStyle
  2
Flat
 70
     0
 71
     2
 72
     1
 73
     1
 90
        2
 40
-0.6
 41
30.0
 62
     5
 63
     7
421
 16777215
 74
     0
 91
        4
 64
     7
 65
   257
 75
     1
175
     1
 42
1.0
 92
        8
 66
     7
 43
1.0
 76
     1
 77
     6
 78
     2
 67
     7
 79
     5
170
     0
171
     0
290
     0
174
     0
 93
       13
 44
0.0
173
     0
291
     1
 45
0.0
1001
ACAD
1000
AcDbSavedByObjectVersion
1070
     0
  0
VISUALSTYLE
  5
2B
102
{ACAD_REACTORS
330
29
102
}
330
29
100
AcDbVisualStyle
  2
FlatWithEdges
 70
     1
 71
     2
 72
     1
 73
     1
 90
        2
 40
-0.6
 41
30.0
 62
     5
 63
     7
421
 16777215
 74
     1
 91
        4
 64
     7
 65
   257
 75
     1
175
     1
 42
1.0
 92
        0
 66
   257
 43
1.0
 76
     1
 77
     6
 78
     2
 67
     7
 79
     5
170
     0
171
     0
290
     0
174
     0
 93
       13
 44
0.0
173
     0
291
     1
 45
0.0
1001
ACAD
1000
AcDbSavedByObjectVersion
1070
     0
  0
VISUALSTYLE
  5
2C
102
{ACAD_REACTORS
330
29
102
}
330
29
100
AcDbVisualStyle
  2
Gouraud
 70
     2
 71
     2
 72
     2
 73
     1
 90
        2
 40
-0.6
 41
30.0
 62
     5
 63
     7
421
 16777215
 74
     0
 91
        4
 64
     7
 65
   257
 75
     1
175
     1
 42
1.0
 92
        0
 66
     7
 43
1.0
 76
     1
 77
     6
 78
     2
 67
     7
 79
     5
170
     0
171
     0
290
     0
174
     0
 93
       13
 44
0.0
173
     0
291
     1
 45
0.0
1001
ACAD
1000
AcDbSavedByObjectVersion
1070
     0
  0
VISUALSTYLE
  5
2D
102
{ACAD_REACTORS
330
29
102
}
330
29
100
AcDbVisualStyle
  2
GouraudWithEdges
 70
     3
 71
     2
 72
     2
 73
     1
 90
        2
 40
-0.6
 41
30.0
 62
     5
 63
     7
421
 16777215
 74
     1
 91
        4
 64
     7
 65
   257
 75
     1
175
     1
 42
1.0
 92
        0
 66
   257
 43
1.0
 76
     1
 77
     6
 78
     2
 67
     7
 79
     5
170
     0
171
     0
290
     0
174
     0
 93
       13
 44
0.0
173
     0
291
     1
 45
0.0
1001
ACAD
1000
AcDbSavedByObjectVersion
1070
     0
  0
VISUALSTYLE
  5
37
102
{ACAD_REACTORS
330
29
102
}
330
29
100
AcDbVisualStyle
  2
Linepattern
 70
    14
 71
     2
 72
     2
 73
     0
 90
        0
 40
-0.6
 41
-30.0
 62
     5
 63
     7
421
 16777215
 74
     1
 91
        4
 64
     7
 65
   257
 75
     7
175
     7
 42
1.0
 92
        8
 66
     7
 43
1.0
 76
     1
 77
     6
 78
     2
 67
     7
 79
     5
170
     0
171
     0
290
     0
174
     0
 93
        1
 44
0.0
173
     0
291
     1
 45
0.0
1001
ACAD
1000
AcDbSavedByObjectVersion
1070
     0
  0
VISUALSTYLE
  5
33
102
{ACAD_REACTORS
330
29
102
}
330
29
100
AcDbVisualStyle
  2
Realistic
 70
     8
 71
     2
 72
     2
 73
     0
 90
        0
 40
-0.6
 41
-30.0
 62
     5
 63
     7
421
 16777215
 74
     1
 91
        0
 64
     7
 65
   257
 75
     1
175
     1
 42
1.0
 92
        8
 66
     8
424
  7895160
 43
1.0
 76
     1
 77
     6
 78
     2
 67
     7
 79
     5
170
     0
171
     0
290
     0
174
     0
 93
       13
 44
0.0
173
     0
291
     0
 45
0.0
1001
ACAD
1000
AcDbSavedByObjectVersion
1070
     0
  0
VISUALSTYLE
  5
36
102
{ACAD_REACTORS
330
29
102
}
330
29
100
AcDbVisualStyle
  2
Thicken
 70
    13
 71
     2
 72
     2
 73
     0
 90
        0
 40
-0.6
 41
-30.0
 62
     5
 63
     7
421
 16777215
 74
     1
 91
        4
 64
     7
 65
   257
 75
     1
175
     1
 42
1.0
 92
       12
 66
     7
 43
1.0
 76
     1
 77
     6
 78
     2
 67
     7
 79
     5
170
     0
171
     0
290
     0
174
     0
 93
        1
 44
0.0
173
     0
291
     1
 45
0.0
1001
ACAD
1000
AcDbSavedByObjectVersion
1070
     0
  0
DICTIONARYVAR
  5
83
102
{ACAD_REACTORS
330
80
102
}
330
80
100
DictionaryVariables
280
     0
  1
1:1
  0
DICTIONARYVAR
  5
82
102
{ACAD_REACTORS
330
80
102
}
330
80
100
DictionaryVariables
280
     0
  1
STANDARD
  0
DICTIONARYVAR
  5
81
102
{ACAD_REACTORS
330
80
102
}
330
80
100
DictionaryVariables
280
     0
  1
STANDARD
  0
DICTIONARYVAR
  5
299
102
{ACAD_REACTORS
330
80
102
}
330
80
100
DictionaryVariables
280
     0
  1
0
  0
DICTIONARYVAR
  5
29A
102
{ACAD_REACTORS
330
80
102
}
330
80
100
DictionaryVariables
280
     0
  1
0
  0
DICTIONARYVAR
  5
298
102
{ACAD_REACTORS
330
80
102
}
330
80
100
DictionaryVariables
280
     0
  1
2
  0
DICTIONARYVAR
  5
297
102
{ACAD_REACTORS
330
80
102
}
330
80
100
DictionaryVariables
280
     0
  1
1
  0
DICTIONARY
  5
1A
330
19
100
AcDbDictionary
280
     1
281
     1
  3
ACAD_XREC_ROUNDTRIP
360
2B6
  3
BUMPTILE
360
1C
  3
DIFFUSETILE
360
1B
  3
OPACITYTILE
360
1F
  3
REFLECTIONTILE
360
1E
  3
REFRACTIONTILE
360
20
  3
SPECULARTILE
360
1D
  0
DICTIONARY
  5
12
330
11
100
AcDbDictionary
280
     1
281
     1
  3
ACAD_XREC_ROUNDTRIP
360
2B5
  3
BUMPTILE
360
14
  3
DIFFUSETILE
360
13
  3
OPACITYTILE
360
17
  3
REFLECTIONTILE
360
16
  3
REFRACTIONTILE
360
18
  3
SPECULARTILE
360
15
  0
DICTIONARY
  5
22
330
21
100
AcDbDictionary
280
     1
281
     1
  3
ACAD_XREC_ROUNDTRIP
360
2B7
  3
BUMPTILE
360
24
  3
DIFFUSETILE
360
23
  3
OPACITYTILE
360
27
  3
REFLECTIONTILE
360
26
  3
REFRACTIONTILE
360
28
  3
SPECULARTILE
360
25
  0
DICTIONARY
  5
7D
330
6D
100
AcDbDictionary
280
     1
281
     1
  3
ACAD_ROUNDTRIP_2008_TABLESTYLE_CELLSTYLEMAP
360
2AA
  3
ACAD_XREC_ROUNDTRIP
360
2B8
  0
XRECORD
  5
2B6
102
{ACAD_REACTORS
330
1A
102
}
330
1A
100
AcDbXrecord
280
     1
102
MATERIAL
148
0.0
149
0.0
149
0.0
 93
        0
 94
      127
282
     0
 72
     0
 77
     0
171
     0
175
     0
179
     0
273
     0
  0
XRECORD
  5
1C
102
{ACAD_REACTORS
330
1A
102
}
330
1A
100
AcDbXrecord
280
     1
270
     1
271
     1
  0
XRECORD
  5
1B
102
{ACAD_REACTORS
330
1A
102
}
330
1A
100
AcDbXrecord
280
     1
270
     1
271
     1
  0
XRECORD
  5
1F
102
{ACAD_REACTORS
330
1A
102
}
330
1A
100
AcDbXrecord
280
     1
270
     1
271
     1
  0
XRECORD
  5
1E
102
{ACAD_REACTORS
330
1A
102
}
330
1A
100
AcDbXrecord
280
     1
270
     1
271
     1
  0
XRECORD
  5
20
102
{ACAD_REACTORS
330
1A
102
}
330
1A
100
AcDbXrecord
280
     1
270
     1
271
     1
  0
XRECORD
  5
1D
102
{ACAD_REACTORS
330
1A
102
}
330
1A
100
AcDbXrecord
280
     1
270
     1
271
     1
  0
XRECORD
  5
2B5
102
{ACAD_REACTORS
330
12
102
}
330
12
100
AcDbXrecord
280
     1
102
MATERIAL
148
0.0
149
0.0
149
0.0
 93
        0
 94
      127
282
     0
 72
     0
 77
     0
171
     0
175
     0
179
     0
273
     0
  0
XRECORD
  5
14
102
{ACAD_REACTORS
330
12
102
}
330
12
100
AcDbXrecord
280
     1
270
     1
271
     1
  0
XRECORD
  5
13
102
{ACAD_REACTORS
330
12
102
}
330
12
100
AcDbXrecord
280
     1
270
     1
271
     1
  0
XRECORD
  5
17
102
{ACAD_REACTORS
330
12
102
}
330
12
100
AcDbXrecord
280
     1
270
     1
271
     1
  0
XRECORD
  5
16
102
{ACAD_REACTORS
330
12
102
}
330
12
100
AcDbXrecord
280
     1
270
     1
271
     1
  0
XRECORD
  5
18
102
{ACAD_REACTORS
330
12
102
}
330
12
100
AcDbXrecord
280
     1
270
     1
271
     1
  0
XRECORD
  5
15
102
{ACAD_REACTORS
330
12
102
}
330
12
100
AcDbXrecord
280
     1
270
     1
271
     1
  0
XRECORD
  5
2B7
102
{ACAD_REACTORS
330
22
102
}
330
22
100
AcDbXrecord
280
     1
102
MATERIAL
148
0.0
149
0.0
149
0.0
 93
        0
 94
      127
282
     0
 72
     0
 77
     0
171
     0
175
     0
179
     0
273
     0
  0
XRECORD
  5
24
102
{ACAD_REACTORS
330
22
102
}
330
22
100
AcDbXrecord
280
     1
270
     1
271
     1
  0
XRECORD
  5
23
102
{ACAD_REACTORS
330
22
102
}
330
22
100
AcDbXrecord
280
     1
270
     1
271
     1
  0
XRECORD
  5
27
102
{ACAD_REACTORS
330
22
102
}
330
22
100
AcDbXrecord
280
     1
270
     1
271
     1
  0
XRECORD
  5
26
102
{ACAD_REACTORS
330
22
102
}
330
22
100
AcDbXrecord
280
     1
270
     1
271
     1
  0
XRECORD
  5
28
102
{ACAD_REACTORS
330
22
102
}
330
22
100
AcDbXrecord
280
     1
270
     1
271
     1
  0
XRECORD
  5
25
102
{ACAD_REACTORS
330
22
102
}
330
22
100
AcDbXrecord
280
     1
270
     1
271
     1
  0
CELLSTYLEMAP
  5
2AA
102
{ACAD_REACTORS
330
7D
102
}
330
7D
100
AcDbCellStyleMap
 90
        3
300
CELLSTYLE
  1
TABLEFORMAT_BEGIN
 90
        5
170
     1
 91
        0
 92
    32768
 62
   257
 93
        1
300
CONTENTFORMAT
  1
CONTENTFORMAT_BEGIN
 90
        0
 91
        0
 92
      512
 93
        0
300

 40
0.0
140
1.0
 94
        5
 62
     0
340
5D
144
0.25
309
CONTENTFORMAT_END
171
     0
 94
        0
309
TABLEFORMAT_END
  1
CELLSTYLE_BEGIN
 90
        1
 91
        1
300
_TITLE
309
CELLSTYLE_END
300
CELLSTYLE
  1
TABLEFORMAT_BEGIN
 90
        5
170
     1
 91
        0
 92
        0
 62
   257
 93
        1
300
CONTENTFORMAT
  1
CONTENTFORMAT_BEGIN
 90
        0
 91
        0
 92
      512
 93
        0
300

 40
0.0
140
1.0
 94
        5
 62
     0
340
5D
144
0.18
309
CONTENTFORMAT_END
171
     0
 94
        0
309
TABLEFORMAT_END
  1
CELLSTYLE_BEGIN
 90
        2
 91
        1
300
_HEADER
309
CELLSTYLE_END
300
CELLSTYLE
  1
TABLEFORMAT_BEGIN
 90
        5
170
     1
 91
        0
 92
        0
 62
   257
 93
        1
300
CONTENTFORMAT
  1
CONTENTFORMAT_BEGIN
 90
        0
 91
        0
 92
      512
 93
        0
300

 40
0.0
140
1.0
 94
        2
 62
     0
340
5D
144
0.18
309
CONTENTFORMAT_END
171
     0
 94
        0
309
TABLEFORMAT_END
  1
CELLSTYLE_BEGIN
 90
        3
 91
        2
300
_DATA
309
CELLSTYLE_END
  0
XRECORD
  5
2B8
102
{ACAD_REACTORS
330
7D
102
}
330
7D
100
AcDbXrecord
280
     1
102
ACAD_ROUNDTRIP_PRE2007_TABLESTYLE
 90
      512
 91
        0
  1

 92
      512
 93
        0
  2

 94
      512
 95
        0
  3

  0
ENDSEC
  0
EOF
