0
SECTION
2
HEADER
9
$LTSCALE
40
20
9
$LIMMIN
10
0
20
0
9
$LIMMAX
10
297
20
210
9
$EXTMIN
10
0
20
-6
9
$EXTMAX
10
50
20
6
9
$SNAPMODE
70
1
9
$SNAPUNIT
10
0.5
20
0.5
9
$GRIDMODE
70
0
9
$GRIDUNIT
10
0
20
0
9
$ORTHOMODE
70
1
9
$TEXTSTYLE
7
txt8
9
$CLAYER
8
1
9
$CECOLOR
62
7
9
$CELTYPE
6
CONTINUOUS
9
$PLINEWID
40
0
9
$OSMODE
70
0
9
$FILLMODE
70
1
9
$CHAMFERA
40
10
9
$CHAMFERB
40
10
9
$COORDS
70
1
9
$FILLETRAD
40
10
9
$INSBASE
10
0
20
0
9
$SPLFRAME
70
0
9
$SPLINESEGS
70
8
0
ENDSEC
0
SECTION
2
TABLES
0
TABLE
2
LTYPE
70
9
0
LTYPE
2
GESTRICHELT
70
0
3
__ __ __ __ __ __ __ __ __ __ __ __ __ __ __
72
65
73
2
40
0.75
49
0.5
49
-0.25
0
LTYPE
2
VERDECKT
70
0
3
_ _ _ _ _ _ _ _ _ _ _ _ _ _ _ _ _ _ _ _ _ _ 
72
65
73
2
40
0.25
49
0.125
49
-0.125
0
LTYPE
2
MITTE
70
0
3
____ _ ____ _ ____ _ ____ _ ____ _ ____ _ __
72
65
73
4
40
2
49
1.25
49
-0.25
49
0.25
49
-0.25
0
LTYPE
2
PHANTOM
70
0
3
_____ _ _ _____ _ _ _____ _ _ _____ _ _ ____
72
65
73
6
40
2.5
49
1.25
49
-0.25
49
0.25
49
-0.25
49
0.25
49
-0.25
0
LTYPE
2
PUNKT
70
0
3
............................................
72
65
73
2
40
0.25
49
0
49
-0.25
0
LTYPE
2
STRICHPUNKT
70
0
3
__ . __ . __ . __ . __ . __ . __ . __ . __ .
72
65
73
4
40
1
49
0.5
49
-0.25
49
0
49
-0.25
0
LTYPE
2
RAND
70
0
3
__ __ . __ __ . __ __ . __ __ . __ __ . __ _
72
65
73
6
40
1.75
49
0.5
49
-0.25
49
0.5
49
-0.25
49
0
49
-0.25
0
LTYPE
2
GETRENNT
70
0
3
__ . . __ . . __ . . __ . . __ . . __ . . __
72
65
73
6
40
1.25
49
0.5
49
-0.25
49
0
49
-0.25
49
0
49
-0.25
0
LTYPE
2
PUNKTE
70
0
3
schliess
72
65
73
2
40
0.1
49
0.05
49
-0.05
0
ENDTAB
0
TABLE
2
STYLE
70
1
0
STYLE
2
STANDARD
70
0
40
0
41
1
50
0
71
0
42
0.2
3
txt8
4

0
ENDTAB
0
TABLE
2
LAYER
70
10
0
LAYER
2
1
70
0
62
7
6
CONTINUOUS
0
LAYER
2
2
70
0
62
7
6
CONTINUOUS
0
LAYER
2
3
70
0
62
7
6
CONTINUOUS
0
LAYER
2
4
70
0
62
7
6
CONTINUOUS
0
LAYER
2
5
70
0
62
7
6
CONTINUOUS
0
LAYER
2
6
70
0
62
7
6
CONTINUOUS
0
LAYER
2
7
70
0
62
7
6
CONTINUOUS
0
LAYER
2
8
70
0
62
7
6
CONTINUOUS
0
LAYER
2
9
70
0
62
7
6
CONTINUOUS
0
LAYER
2
10
70
0
62
7
6
CONTINUOUS
0
ENDTAB
0
ENDSEC
0
SECTION
2
BLOCKS
0
BLOCK
8
0
2
SAB01258-G1
70
0
10
0
20
0
0
POLYLINE
8
1
62
7
70
1
66
1
40
0
41
0
0
VERTEX
8
1
10
0
20
-6
0
VERTEX
8
1
10
0
20
6
0
VERTEX
8
1
10
50
20
6
0
VERTEX
8
1
10
50
20
-6
0
SEQEND
8
1
0
POLYLINE
8
1
62
7
70
1
66
1
40
0
41
0
0
VERTEX
8
1
10
0
20
-3.25
0
VERTEX
8
1
10
0
20
3.25
0
VERTEX
8
1
10
50
20
3.25
0
VERTEX
8
1
10
50
20
-3.25
0
SEQEND
8
1
0
CIRCLE
8
1
62
7
10
38.5
20
0
40
3
0
LINE
8
1
62
7
10
36.5
20
2
11
40.5
21
-2
0
CIRCLE
8
1
62
7
10
11.5
20
0
40
3
0
CIRCLE
8
1
62
7
10
5
20
0
40
3
0
LINE
8
1
62
7
10
3
20
2
11
7
21
-2
0
LINE
8
1
62
7
10
9.5
20
2
11
13.5
21
-2
0
CIRCLE
8
1
62
7
10
25
20
0
40
3
0
CIRCLE
8
1
62
7
10
18.5
20
0
40
3
0
LINE
8
1
62
7
10
16.5
20
2
11
20.5
21
-2
0
LINE
8
1
62
7
10
23
20
2
11
27
21
-2
0
CIRCLE
8
1
62
7
10
31.5
20
0
40
3
0
LINE
8
1
62
7
10
29.5
20
2
11
33.5
21
-2
0
LINE
8
1
62
7
10
1
20
3
11
1
21
-3
0
CIRCLE
8
1
62
7
10
45
20
0
40
3
0
LINE
8
1
62
7
10
43
20
2
11
47
21
-2
0
LINE
8
1
62
7
10
49
20
3
11
49
21
-3
0
ENDBLK
8
0
0
ENDSEC
0
SECTION
2
ENTITIES
0
INSERT
8
1
2
SAB01258-G1
10
0
20
0
0
ENDSEC
0
EOF
