0
SECTION
2
HEADER
9
$LTSCALE
40
20
9
$LIMMIN
10
0
20
0
9
$LIMMAX
10
297
20
210
9
$EXTMIN
10
0
20
-73.5
9
$EXTMAX
10
97.1
20
73.5
9
$SNAPMODE
70
1
9
$SNAPUNIT
10
1
20
1
9
$GRIDMODE
70
0
9
$GRIDUNIT
10
0
20
0
9
$ORTHOMODE
70
0
9
$TEXTSTYLE
7
txt8
9
$CLAYER
8
1
9
$CECOLOR
62
7
9
$CELTYPE
6
CONTINUOUS
9
$PLINEWID
40
0
9
$OSMODE
70
0
9
$FILLMODE
70
1
9
$CHAMFERA
40
3
9
$CHAMFERB
40
3
9
$COORDS
70
1
9
$FILLETRAD
40
3
9
$INSBASE
10
0
20
0
9
$SPLFRAME
70
0
9
$SPLINESEGS
70
8
0
ENDSEC
0
SECTION
2
TABLES
0
TABLE
2
LTYPE
70
9
0
LTYPE
2
GESTRICHELT
70
0
3
__ __ __ __ __ __ __ __ __ __ __ __ __ __ __
72
65
73
2
40
0.75
49
0.5
49
-0.25
0
LTYPE
2
VERDECKT
70
0
3
_ _ _ _ _ _ _ _ _ _ _ _ _ _ _ _ _ _ _ _ _ _ 
72
65
73
2
40
0.25
49
0.125
49
-0.125
0
LTYPE
2
MITTE
70
0
3
____ _ ____ _ ____ _ ____ _ ____ _ ____ _ __
72
65
73
4
40
2
49
1.25
49
-0.25
49
0.25
49
-0.25
0
LTYPE
2
PHANTOM
70
0
3
_____ _ _ _____ _ _ _____ _ _ _____ _ _ ____
72
65
73
6
40
2.5
49
1.25
49
-0.25
49
0.25
49
-0.25
49
0.25
49
-0.25
0
LTYPE
2
PUNKT
70
0
3
............................................
72
65
73
2
40
0.25
49
0
49
-0.25
0
LTYPE
2
STRICHPUNKT
70
0
3
__ . __ . __ . __ . __ . __ . __ . __ . __ .
72
65
73
4
40
1
49
0.5
49
-0.25
49
0
49
-0.25
0
LTYPE
2
RAND
70
0
3
__ __ . __ __ . __ __ . __ __ . __ __ . __ _
72
65
73
6
40
1.75
49
0.5
49
-0.25
49
0.5
49
-0.25
49
0
49
-0.25
0
LTYPE
2
GETRENNT
70
0
3
__ . . __ . . __ . . __ . . __ . . __ . . __
72
65
73
6
40
1.25
49
0.5
49
-0.25
49
0
49
-0.25
49
0
49
-0.25
0
LTYPE
2
PUNKTE
70
0
3
schliess
72
65
73
2
40
0.1
49
0.05
49
-0.05
0
ENDTAB
0
TABLE
2
STYLE
70
1
0
STYLE
2
STANDARD
70
0
40
0
41
1
50
0
71
0
42
0.2
3
txt8
4

0
ENDTAB
0
TABLE
2
LAYER
70
10
0
LAYER
2
1
70
0
62
7
6
CONTINUOUS
0
LAYER
2
2
70
0
62
7
6
CONTINUOUS
0
LAYER
2
3
70
0
62
7
6
CONTINUOUS
0
LAYER
2
4
70
0
62
7
6
CONTINUOUS
0
LAYER
2
5
70
0
62
7
6
CONTINUOUS
0
LAYER
2
6
70
0
62
7
6
CONTINUOUS
0
LAYER
2
7
70
0
62
7
6
CONTINUOUS
0
LAYER
2
8
70
0
62
7
6
CONTINUOUS
0
LAYER
2
9
70
0
62
7
6
CONTINUOUS
0
LAYER
2
10
70
0
62
7
6
CONTINUOUS
0
ENDTAB
0
ENDSEC
0
SECTION
2
BLOCKS
0
BLOCK
8
0
2
SOR03759-G1
70
0
10
0
20
0
0
POLYLINE
8
1
62
7
70
0
66
1
40
0
41
0
0
VERTEX
8
1
10
64.6
20
10
0
VERTEX
8
1
10
64.6
20
73.5
0
VERTEX
8
1
10
97.1
20
73.5
0
VERTEX
8
1
10
97.1
20
10
0
SEQEND
8
1
0
POLYLINE
8
1
62
7
70
0
66
1
40
0
41
0
0
VERTEX
8
1
10
32.3
20
10
0
VERTEX
8
1
10
32.3
20
73.5
0
VERTEX
8
1
10
64.8
20
73.5
0
VERTEX
8
1
10
64.8
20
10
0
SEQEND
8
1
0
POLYLINE
8
1
62
7
70
0
66
1
40
0
41
0
0
VERTEX
8
1
10
5.114995e-15
20
10
0
VERTEX
8
1
10
0
20
73.5
0
VERTEX
8
1
10
32.5
20
73.5
0
VERTEX
8
1
10
32.5
20
10
0
SEQEND
8
1
0
POLYLINE
8
1
62
7
70
0
66
1
40
0
41
0
0
VERTEX
8
1
10
97.1
20
-10
0
VERTEX
8
1
10
97.1
20
-73.5
0
VERTEX
8
1
10
64.6
20
-73.5
0
VERTEX
8
1
10
64.6
20
-10
0
SEQEND
8
1
0
LINE
8
1
62
7
10
66.6
20
-19
11
80.6
21
-19
0
LINE
8
1
62
7
10
66.6
20
19
11
80.6
21
19
0
CIRCLE
8
1
62
7
10
74.25
20
12.5
40
3.25
0
POLYLINE
8
1
62
7
70
1
66
1
40
0
41
0
0
VERTEX
8
1
10
66.6
20
-25
0
VERTEX
8
1
10
66.6
20
25
0
VERTEX
8
1
10
95.6
20
25
0
VERTEX
8
1
10
95.6
20
-25
0
SEQEND
8
1
0
POLYLINE
8
1
62
7
70
1
66
1
40
0
41
0
0
VERTEX
8
1
10
2
20
-25
0
VERTEX
8
1
10
2
20
25
0
VERTEX
8
1
10
31
20
25
0
VERTEX
8
1
10
31
20
-25
0
SEQEND
8
1
0
POLYLINE
8
1
62
7
70
1
66
1
40
0
41
0
0
VERTEX
8
1
10
34.3
20
-25
0
VERTEX
8
1
10
34.3
20
25
0
VERTEX
8
1
10
63.3
20
25
0
VERTEX
8
1
10
63.3
20
-25
0
SEQEND
8
1
0
CIRCLE
8
1
62
7
10
17.65
20
0
40
3.25
0
CIRCLE
8
1
62
7
10
49.95
20
0
40
3.25
0
POLYLINE
8
1
62
7
70
0
66
1
40
0
41
0
0
VERTEX
8
1
10
64.8
20
-10
0
VERTEX
8
1
10
64.8
20
-73.5
0
VERTEX
8
1
10
32.3
20
-73.5
0
VERTEX
8
1
10
32.3
20
-10
0
SEQEND
8
1
0
LINE
8
1
62
7
10
34.3
20
-19
11
48.3
21
-19
0
CIRCLE
8
1
62
7
10
39
20
-22
40
3.162278
0
POLYLINE
8
1
62
7
70
0
66
1
40
0
41
0
0
VERTEX
8
1
10
32.5
20
-10
0
VERTEX
8
1
10
32.5
20
-73.5
0
VERTEX
8
1
10
0
20
-73.5
0
VERTEX
8
1
10
3.889846e-15
20
-10
0
SEQEND
8
1
0
POLYLINE
8
1
62
7
70
1
66
1
40
0
41
0
0
VERTEX
8
1
10
15
20
-25
0
VERTEX
8
1
10
15
20
-39
0
VERTEX
8
1
10
20
20
-39
0
VERTEX
8
1
10
20
20
-25
0
SEQEND
8
1
0
POLYLINE
8
1
62
7
70
1
66
1
40
0
41
0
0
VERTEX
8
1
10
0
20
-41
0
VERTEX
8
1
10
0
20
-10
0
VERTEX
8
1
10
2
20
-10
0
VERTEX
8
1
10
2
20
-41
0
SEQEND
8
1
0
POLYLINE
8
1
62
7
70
1
66
1
40
0
41
0
0
VERTEX
8
1
10
32.3
20
-41
0
VERTEX
8
1
10
32.3
20
-10
0
VERTEX
8
1
10
34.3
20
-10
0
VERTEX
8
1
10
34.3
20
-41
0
SEQEND
8
1
0
POLYLINE
8
1
62
7
70
1
66
1
40
0
41
0
0
VERTEX
8
1
10
31
20
-41
0
VERTEX
8
1
10
31
20
-10
0
VERTEX
8
1
10
32.3
20
-10
0
VERTEX
8
1
10
32.3
20
-41
0
SEQEND
8
1
0
POLYLINE
8
5
62
3
6
VERDECKT
70
1
66
1
40
0
41
0
0
VERTEX
8
5
10
11.21744
20
-49.41259
0
VERTEX
8
5
10
11.21744
20
-51.51049
0
VERTEX
8
5
10
24.46855
20
-51.51049
0
VERTEX
8
5
10
24.46855
20
-49.41259
0
SEQEND
8
5
0
POLYLINE
8
5
62
3
6
VERDECKT
70
1
66
1
40
0
41
0
0
VERTEX
8
5
10
17.56039
20
-58.9697
0
VERTEX
8
5
10
25.09656
20
-54.89044
0
VERTEX
8
5
10
25.09656
20
-45.68298
0
VERTEX
8
5
10
17.8116
20
-41.13753
0
VERTEX
8
5
10
10.21262
20
-45.27506
0
VERTEX
8
5
10
10.21262
20
-55.12354
0
SEQEND
8
5
0
POLYLINE
8
1
62
7
70
1
66
1
40
0
41
0
0
VERTEX
8
1
10
15
20
-35
0
VERTEX
8
1
10
15
20
-29
0
VERTEX
8
1
10
17
20
-29
0
VERTEX
8
1
10
17
20
-35
0
SEQEND
8
1
0
POLYLINE
8
1
62
7
70
1
66
1
40
0
41
0
0
VERTEX
8
1
10
18
20
-35
0
VERTEX
8
1
10
18
20
-29
0
VERTEX
8
1
10
20
20
-29
0
VERTEX
8
1
10
20
20
-35
0
SEQEND
8
1
0
CIRCLE
8
1
62
7
10
25.65
20
-12.5
40
3.25
0
POLYLINE
8
1
62
7
70
1
66
1
40
0
41
0
0
VERTEX
8
1
10
16
20
-25
0
VERTEX
8
1
10
16
20
-3
0
VERTEX
8
1
10
19
20
-3
0
VERTEX
8
1
10
19
20
-25
0
SEQEND
8
1
0
LINE
8
1
62
7
10
2
20
-19
11
16
21
-19
0
LINE
8
1
62
7
10
19
20
-19
11
31
21
-19
0
CIRCLE
8
1
62
7
10
27
20
-22
40
3.162278
0
LINE
8
1
62
7
10
28
20
-22
11
29
21
-23
0
POLYLINE
8
1
62
7
70
1
66
1
40
0
41
0
0
VERTEX
8
1
10
47.3
20
-25
0
VERTEX
8
1
10
47.3
20
-39
0
VERTEX
8
1
10
52.3
20
-39
0
VERTEX
8
1
10
52.3
20
-25
0
SEQEND
8
1
0
POLYLINE
8
1
62
7
70
1
66
1
40
0
41
0
0
VERTEX
8
1
10
63.3
20
-41
0
VERTEX
8
1
10
63.3
20
-10
0
VERTEX
8
1
10
64.6
20
-10
0
VERTEX
8
1
10
64.6
20
-41
0
SEQEND
8
1
0
POLYLINE
8
1
62
7
70
1
66
1
40
0
41
0
0
VERTEX
8
1
10
64.6
20
-41
0
VERTEX
8
1
10
64.6
20
-10
0
VERTEX
8
1
10
66.6
20
-10
0
VERTEX
8
1
10
66.6
20
-41
0
SEQEND
8
1
0
POLYLINE
8
5
62
3
6
VERDECKT
70
1
66
1
40
0
41
0
0
VERTEX
8
5
10
43.51744
20
-49.41259
0
VERTEX
8
5
10
43.51744
20
-51.51049
0
VERTEX
8
5
10
56.76855
20
-51.51049
0
VERTEX
8
5
10
56.76855
20
-49.41259
0
SEQEND
8
5
0
POLYLINE
8
5
62
3
6
VERDECKT
70
1
66
1
40
0
41
0
0
VERTEX
8
5
10
49.86039
20
-58.9697
0
VERTEX
8
5
10
57.39656
20
-54.89044
0
VERTEX
8
5
10
57.39656
20
-45.68298
0
VERTEX
8
5
10
50.1116
20
-41.13753
0
VERTEX
8
5
10
42.51262
20
-45.27506
0
VERTEX
8
5
10
42.51262
20
-55.12354
0
SEQEND
8
5
0
POLYLINE
8
1
62
7
70
1
66
1
40
0
41
0
0
VERTEX
8
1
10
47.3
20
-35
0
VERTEX
8
1
10
47.3
20
-29
0
VERTEX
8
1
10
49.3
20
-29
0
VERTEX
8
1
10
49.3
20
-35
0
SEQEND
8
1
0
POLYLINE
8
1
62
7
70
1
66
1
40
0
41
0
0
VERTEX
8
1
10
50.3
20
-35
0
VERTEX
8
1
10
50.3
20
-29
0
VERTEX
8
1
10
52.3
20
-29
0
VERTEX
8
1
10
52.3
20
-35
0
SEQEND
8
1
0
CIRCLE
8
1
62
7
10
57.95
20
-12.5
40
3.25
0
POLYLINE
8
1
62
7
70
1
66
1
40
0
41
0
0
VERTEX
8
1
10
48.3
20
-25
0
VERTEX
8
1
10
48.3
20
-3
0
VERTEX
8
1
10
51.3
20
-3
0
VERTEX
8
1
10
51.3
20
-25
0
SEQEND
8
1
0
LINE
8
1
62
7
10
39
20
-20
11
40
21
-24
0
CIRCLE
8
1
62
7
10
71
20
-22
40
3.162278
0
LINE
8
1
62
7
10
73
20
-20
11
70
21
-24
0
LINE
8
1
62
7
10
51.3
20
-19
11
63.3
21
-19
0
CIRCLE
8
1
62
7
10
59
20
-22
40
3.162278
0
LINE
8
1
62
7
10
58
20
-21
11
61
21
-23
0
LINE
8
1
62
7
10
34.3
20
19
11
48.3
21
19
0
CIRCLE
8
1
62
7
10
39
20
22
40
3.162278
0
POLYLINE
8
1
62
7
70
1
66
1
40
0
41
0
0
VERTEX
8
1
10
15
20
25
0
VERTEX
8
1
10
15
20
39
0
VERTEX
8
1
10
20
20
39
0
VERTEX
8
1
10
20
20
25
0
SEQEND
8
1
0
POLYLINE
8
1
62
7
70
1
66
1
40
0
41
0
0
VERTEX
8
1
10
15
20
29
0
VERTEX
8
1
10
15
20
35
0
VERTEX
8
1
10
17
20
35
0
VERTEX
8
1
10
17
20
29
0
SEQEND
8
1
0
POLYLINE
8
1
62
7
70
1
66
1
40
0
41
0
0
VERTEX
8
1
10
18
20
29
0
VERTEX
8
1
10
18
20
35
0
VERTEX
8
1
10
20
20
35
0
VERTEX
8
1
10
20
20
29
0
SEQEND
8
1
0
POLYLINE
8
1
62
7
70
1
66
1
40
0
41
0
0
VERTEX
8
1
10
0
20
10
0
VERTEX
8
1
10
0
20
41
0
VERTEX
8
1
10
2
20
41
0
VERTEX
8
1
10
2
20
10
0
SEQEND
8
1
0
POLYLINE
8
1
62
7
70
1
66
1
40
0
41
0
0
VERTEX
8
1
10
32.3
20
10
0
VERTEX
8
1
10
32.3
20
41
0
VERTEX
8
1
10
34.3
20
41
0
VERTEX
8
1
10
34.3
20
10
0
SEQEND
8
1
0
POLYLINE
8
1
62
7
70
1
66
1
40
0
41
0
0
VERTEX
8
1
10
31
20
10
0
VERTEX
8
1
10
31
20
41
0
VERTEX
8
1
10
32.3
20
41
0
VERTEX
8
1
10
32.3
20
10
0
SEQEND
8
1
0
POLYLINE
8
1
62
7
70
1
66
1
40
0
41
0
0
VERTEX
8
1
10
16
20
3
0
VERTEX
8
1
10
16
20
25
0
VERTEX
8
1
10
19
20
25
0
VERTEX
8
1
10
19
20
3
0
SEQEND
8
1
0
CIRCLE
8
1
62
7
10
9.65
20
12.5
40
3.25
0
LINE
8
1
62
7
10
2
20
19
11
16
21
19
0
CIRCLE
8
1
62
7
10
28
20
22
40
3.162278
0
LINE
8
1
62
7
10
19
20
19
11
31
21
19
0
LINE
8
1
62
7
10
27
20
22
11
27
21
22
0
POLYLINE
8
5
62
3
6
VERDECKT
70
1
66
1
40
0
41
0
0
VERTEX
8
5
10
17.56039
20
58.9697
0
VERTEX
8
5
10
25.09656
20
54.89044
0
VERTEX
8
5
10
25.09656
20
45.68298
0
VERTEX
8
5
10
17.8116
20
41.13753
0
VERTEX
8
5
10
10.21262
20
45.27506
0
VERTEX
8
5
10
10.21262
20
55.12354
0
SEQEND
8
5
0
POLYLINE
8
5
62
3
6
VERDECKT
70
1
66
1
40
0
41
0
0
VERTEX
8
5
10
11.21744
20
49.41259
0
VERTEX
8
5
10
11.21744
20
51.51049
0
VERTEX
8
5
10
24.46855
20
51.51049
0
VERTEX
8
5
10
24.46855
20
49.41259
0
SEQEND
8
5
0
POLYLINE
8
1
62
7
70
1
66
1
40
0
41
0
0
VERTEX
8
1
10
47.3
20
25
0
VERTEX
8
1
10
47.3
20
39
0
VERTEX
8
1
10
52.3
20
39
0
VERTEX
8
1
10
52.3
20
25
0
SEQEND
8
1
0
POLYLINE
8
1
62
7
70
1
66
1
40
0
41
0
0
VERTEX
8
1
10
47.3
20
29
0
VERTEX
8
1
10
47.3
20
35
0
VERTEX
8
1
10
49.3
20
35
0
VERTEX
8
1
10
49.3
20
29
0
SEQEND
8
1
0
POLYLINE
8
1
62
7
70
1
66
1
40
0
41
0
0
VERTEX
8
1
10
50.3
20
29
0
VERTEX
8
1
10
50.3
20
35
0
VERTEX
8
1
10
52.3
20
35
0
VERTEX
8
1
10
52.3
20
29
0
SEQEND
8
1
0
POLYLINE
8
1
62
7
70
1
66
1
40
0
41
0
0
VERTEX
8
1
10
63.3
20
10
0
VERTEX
8
1
10
63.3
20
41
0
VERTEX
8
1
10
64.6
20
41
0
VERTEX
8
1
10
64.6
20
10
0
SEQEND
8
1
0
POLYLINE
8
1
62
7
70
1
66
1
40
0
41
0
0
VERTEX
8
1
10
64.6
20
10
0
VERTEX
8
1
10
64.6
20
41
0
VERTEX
8
1
10
66.6
20
41
0
VERTEX
8
1
10
66.6
20
10
0
SEQEND
8
1
0
POLYLINE
8
1
62
7
70
1
66
1
40
0
41
0
0
VERTEX
8
1
10
48.3
20
3
0
VERTEX
8
1
10
48.3
20
25
0
VERTEX
8
1
10
51.3
20
25
0
VERTEX
8
1
10
51.3
20
3
0
SEQEND
8
1
0
CIRCLE
8
1
62
7
10
41.95
20
12.5
40
3.25
0
LINE
8
1
62
7
10
38
20
23
11
41
21
21
0
CIRCLE
8
1
62
7
10
71
20
22
40
3.162278
0
LINE
8
1
62
7
10
70
20
23
11
73
21
21
0
LINE
8
1
62
7
10
51.3
20
19
11
63.3
21
19
0
CIRCLE
8
1
62
7
10
59
20
22
40
3.162278
0
LINE
8
1
62
7
10
57
20
21
11
61
21
23
0
POLYLINE
8
5
62
3
6
VERDECKT
70
1
66
1
40
0
41
0
0
VERTEX
8
5
10
49.86039
20
58.9697
0
VERTEX
8
5
10
57.39656
20
54.89044
0
VERTEX
8
5
10
57.39656
20
45.68298
0
VERTEX
8
5
10
50.1116
20
41.13753
0
VERTEX
8
5
10
42.51262
20
45.27506
0
VERTEX
8
5
10
42.51262
20
55.12354
0
SEQEND
8
5
0
POLYLINE
8
5
62
3
6
VERDECKT
70
1
66
1
40
0
41
0
0
VERTEX
8
5
10
43.51744
20
49.41259
0
VERTEX
8
5
10
43.51744
20
51.51049
0
VERTEX
8
5
10
56.76855
20
51.51049
0
VERTEX
8
5
10
56.76855
20
49.41259
0
SEQEND
8
5
0
CIRCLE
8
1
62
7
10
82.25
20
0
40
3.25
0
POLYLINE
8
1
62
7
70
1
66
1
40
0
41
0
0
VERTEX
8
1
10
79.6
20
-25
0
VERTEX
8
1
10
79.6
20
-39
0
VERTEX
8
1
10
84.6
20
-39
0
VERTEX
8
1
10
84.6
20
-25
0
SEQEND
8
1
0
POLYLINE
8
1
62
7
70
1
66
1
40
0
41
0
0
VERTEX
8
1
10
95.6
20
-41
0
VERTEX
8
1
10
95.6
20
-10
0
VERTEX
8
1
10
96.9
20
-10
0
VERTEX
8
1
10
96.9
20
-41
0
SEQEND
8
1
0
POLYLINE
8
5
62
3
6
VERDECKT
70
1
66
1
40
0
41
0
0
VERTEX
8
5
10
75.81744
20
-49.41259
0
VERTEX
8
5
10
75.81744
20
-51.51049
0
VERTEX
8
5
10
89.06855
20
-51.51049
0
VERTEX
8
5
10
89.06855
20
-49.41259
0
SEQEND
8
5
0
POLYLINE
8
5
62
3
6
VERDECKT
70
1
66
1
40
0
41
0
0
VERTEX
8
5
10
82.16039
20
-58.9697
0
VERTEX
8
5
10
89.69656
20
-54.89044
0
VERTEX
8
5
10
89.69656
20
-45.68298
0
VERTEX
8
5
10
82.4116
20
-41.13753
0
VERTEX
8
5
10
74.81262
20
-45.27506
0
VERTEX
8
5
10
74.81262
20
-55.12354
0
SEQEND
8
5
0
POLYLINE
8
1
62
7
70
1
66
1
40
0
41
0
0
VERTEX
8
1
10
79.6
20
-35
0
VERTEX
8
1
10
79.6
20
-29
0
VERTEX
8
1
10
81.6
20
-29
0
VERTEX
8
1
10
81.6
20
-35
0
SEQEND
8
1
0
POLYLINE
8
1
62
7
70
1
66
1
40
0
41
0
0
VERTEX
8
1
10
82.6
20
-35
0
VERTEX
8
1
10
82.6
20
-29
0
VERTEX
8
1
10
84.6
20
-29
0
VERTEX
8
1
10
84.6
20
-35
0
SEQEND
8
1
0
CIRCLE
8
1
62
7
10
90.25
20
-12.5
40
3.25
0
POLYLINE
8
1
62
7
70
1
66
1
40
0
41
0
0
VERTEX
8
1
10
80.6
20
-25
0
VERTEX
8
1
10
80.6
20
-3
0
VERTEX
8
1
10
83.6
20
-3
0
VERTEX
8
1
10
83.6
20
-25
0
SEQEND
8
1
0
LINE
8
1
62
7
10
83.6
20
-19
11
95.6
21
-19
0
POLYLINE
8
1
62
7
70
1
66
1
40
0
41
0
0
VERTEX
8
1
10
79.6
20
25
0
VERTEX
8
1
10
79.6
20
39
0
VERTEX
8
1
10
84.6
20
39
0
VERTEX
8
1
10
84.6
20
25
0
SEQEND
8
1
0
POLYLINE
8
1
62
7
70
1
66
1
40
0
41
0
0
VERTEX
8
1
10
79.6
20
29
0
VERTEX
8
1
10
79.6
20
35
0
VERTEX
8
1
10
81.6
20
35
0
VERTEX
8
1
10
81.6
20
29
0
SEQEND
8
1
0
POLYLINE
8
1
62
7
70
1
66
1
40
0
41
0
0
VERTEX
8
1
10
82.6
20
29
0
VERTEX
8
1
10
82.6
20
35
0
VERTEX
8
1
10
84.6
20
35
0
VERTEX
8
1
10
84.6
20
29
0
SEQEND
8
1
0
POLYLINE
8
1
62
7
70
1
66
1
40
0
41
0
0
VERTEX
8
1
10
95.6
20
10
0
VERTEX
8
1
10
95.6
20
41
0
VERTEX
8
1
10
96.9
20
41
0
VERTEX
8
1
10
96.9
20
10
0
SEQEND
8
1
0
POLYLINE
8
1
62
7
70
1
66
1
40
0
41
0
0
VERTEX
8
1
10
80.6
20
3
0
VERTEX
8
1
10
80.6
20
25
0
VERTEX
8
1
10
83.6
20
25
0
VERTEX
8
1
10
83.6
20
3
0
SEQEND
8
1
0
LINE
8
1
62
7
10
83.6
20
19
11
95.6
21
19
0
POLYLINE
8
5
62
3
6
VERDECKT
70
1
66
1
40
0
41
0
0
VERTEX
8
5
10
82.16039
20
58.9697
0
VERTEX
8
5
10
89.69656
20
54.89044
0
VERTEX
8
5
10
89.69656
20
45.68298
0
VERTEX
8
5
10
82.4116
20
41.13753
0
VERTEX
8
5
10
74.81262
20
45.27506
0
VERTEX
8
5
10
74.81262
20
55.12354
0
SEQEND
8
5
0
POLYLINE
8
5
62
3
6
VERDECKT
70
1
66
1
40
0
41
0
0
VERTEX
8
5
10
75.81744
20
49.41259
0
VERTEX
8
5
10
75.81744
20
51.51049
0
VERTEX
8
5
10
89.06855
20
51.51049
0
VERTEX
8
5
10
89.06855
20
49.41259
0
SEQEND
8
5
0
ENDBLK
8
0
0
ENDSEC
0
SECTION
2
ENTITIES
0
INSERT
8
1
2
SOR03759-G1
10
0
20
0
0
ENDSEC
0
EOF
