0
SECTION
2
HEADER
9
$LTSCALE
40
20
9
$LIMMIN
10
0
20
0
9
$LIMMAX
10
297
20
210
9
$EXTMIN
10
0
20
-73.5
9
$EXTMAX
10
35.5
20
73.5
9
$SNAPMODE
70
1
9
$SNAPUNIT
10
1
20
1
9
$GRIDMODE
70
0
9
$GRIDUNIT
10
0
20
0
9
$ORTHOMODE
70
0
9
$TEXTSTYLE
7
txt8
9
$CLAYER
8
5
9
$CECOLOR
62
3
9
$CELTYPE
6
VERDECKT
9
$PLINEWID
40
0
9
$OSMODE
70
0
9
$FILLMODE
70
1
9
$CHAMFERA
40
3
9
$CHAMFERB
40
3
9
$COORDS
70
1
9
$FILLETRAD
40
3
9
$INSBASE
10
0
20
0
9
$SPLFRAME
70
0
9
$SPLINESEGS
70
8
0
ENDSEC
0
SECTION
2
TABLES
0
TABLE
2
LTYPE
70
9
0
LTYPE
2
GESTRICHELT
70
0
3
__ __ __ __ __ __ __ __ __ __ __ __ __ __ __
72
65
73
2
40
0.75
49
0.5
49
-0.25
0
LTYPE
2
VERDECKT
70
0
3
_ _ _ _ _ _ _ _ _ _ _ _ _ _ _ _ _ _ _ _ _ _ 
72
65
73
2
40
0.25
49
0.125
49
-0.125
0
LTYPE
2
MITTE
70
0
3
____ _ ____ _ ____ _ ____ _ ____ _ ____ _ __
72
65
73
4
40
2
49
1.25
49
-0.25
49
0.25
49
-0.25
0
LTYPE
2
PHANTOM
70
0
3
_____ _ _ _____ _ _ _____ _ _ _____ _ _ ____
72
65
73
6
40
2.5
49
1.25
49
-0.25
49
0.25
49
-0.25
49
0.25
49
-0.25
0
LTYPE
2
PUNKT
70
0
3
............................................
72
65
73
2
40
0.25
49
0
49
-0.25
0
LTYPE
2
STRICHPUNKT
70
0
3
__ . __ . __ . __ . __ . __ . __ . __ . __ .
72
65
73
4
40
1
49
0.5
49
-0.25
49
0
49
-0.25
0
LTYPE
2
RAND
70
0
3
__ __ . __ __ . __ __ . __ __ . __ __ . __ _
72
65
73
6
40
1.75
49
0.5
49
-0.25
49
0.5
49
-0.25
49
0
49
-0.25
0
LTYPE
2
GETRENNT
70
0
3
__ . . __ . . __ . . __ . . __ . . __ . . __
72
65
73
6
40
1.25
49
0.5
49
-0.25
49
0
49
-0.25
49
0
49
-0.25
0
LTYPE
2
PUNKTE
70
0
3
schliess
72
65
73
2
40
0.1
49
0.05
49
-0.05
0
ENDTAB
0
TABLE
2
STYLE
70
1
0
STYLE
2
STANDARD
70
0
40
0
41
1
50
0
71
0
42
0.2
3
txt8
4

0
ENDTAB
0
TABLE
2
LAYER
70
10
0
LAYER
2
1
70
0
62
7
6
CONTINUOUS
0
LAYER
2
2
70
0
62
7
6
CONTINUOUS
0
LAYER
2
3
70
0
62
7
6
CONTINUOUS
0
LAYER
2
4
70
0
62
7
6
CONTINUOUS
0
LAYER
2
5
70
0
62
7
6
CONTINUOUS
0
LAYER
2
6
70
0
62
7
6
CONTINUOUS
0
LAYER
2
7
70
0
62
7
6
CONTINUOUS
0
LAYER
2
8
70
0
62
7
6
CONTINUOUS
0
LAYER
2
9
70
0
62
7
6
CONTINUOUS
0
LAYER
2
10
70
0
62
7
6
CONTINUOUS
0
ENDTAB
0
ENDSEC
0
SECTION
2
BLOCKS
0
BLOCK
8
0
2
SOR03760-G1
70
0
10
0
20
0
0
POLYLINE
8
1
62
7
70
1
66
1
40
0
41
0
0
VERTEX
8
1
10
2
20
-25
0
VERTEX
8
1
10
2
20
25
0
VERTEX
8
1
10
34
20
25
0
VERTEX
8
1
10
34
20
-25
0
SEQEND
8
1
0
CIRCLE
8
1
62
7
10
17.65
20
0
40
3.25
0
POLYLINE
8
1
62
7
70
0
66
1
40
0
41
0
0
VERTEX
8
1
10
35.5
20
-10
0
VERTEX
8
1
10
35.5
20
-73.5
0
VERTEX
8
1
10
0
20
-73.5
0
VERTEX
8
1
10
3.889846e-15
20
-10
0
SEQEND
8
1
0
POLYLINE
8
1
62
7
70
1
66
1
40
0
41
0
0
VERTEX
8
1
10
15
20
-25
0
VERTEX
8
1
10
15
20
-39
0
VERTEX
8
1
10
20
20
-39
0
VERTEX
8
1
10
20
20
-25
0
SEQEND
8
1
0
POLYLINE
8
1
62
7
70
1
66
1
40
0
41
0
0
VERTEX
8
1
10
0
20
-41
0
VERTEX
8
1
10
0
20
-10
0
VERTEX
8
1
10
2
20
-10
0
VERTEX
8
1
10
2
20
-41
0
SEQEND
8
1
0
POLYLINE
8
1
62
7
70
1
66
1
40
0
41
0
0
VERTEX
8
1
10
34
20
-41
0
VERTEX
8
1
10
34
20
-10
0
VERTEX
8
1
10
35.3
20
-10
0
VERTEX
8
1
10
35.3
20
-41
0
SEQEND
8
1
0
POLYLINE
8
5
62
3
6
VERDECKT
70
1
66
1
40
0
41
0
0
VERTEX
8
5
10
17.23885
20
-44.8345
0
VERTEX
8
5
10
26.77502
20
-44.88578
0
VERTEX
8
5
10
26.77502
20
-54.61538
0
VERTEX
8
5
10
16.84697
20
-54.61073
0
VERTEX
8
5
10
7.891077
20
-54.72494
0
VERTEX
8
5
10
7.891077
20
-44.87646
0
SEQEND
8
5
0
CIRCLE
8
5
62
3
6
VERDECKT
10
22
20
-50
40
4
0
CIRCLE
8
5
62
3
6
VERDECKT
10
13
20
-50
40
4
0
LINE
8
5
62
3
6
VERDECKT
10
11
20
-48
11
15
21
-53
0
LINE
8
5
62
3
6
VERDECKT
10
21
20
-48
11
24
21
-53
0
POLYLINE
8
1
62
7
70
1
66
1
40
0
41
0
0
VERTEX
8
1
10
15
20
-35
0
VERTEX
8
1
10
15
20
-29
0
VERTEX
8
1
10
17
20
-29
0
VERTEX
8
1
10
17
20
-35
0
SEQEND
8
1
0
POLYLINE
8
1
62
7
70
1
66
1
40
0
41
0
0
VERTEX
8
1
10
18
20
-35
0
VERTEX
8
1
10
18
20
-29
0
VERTEX
8
1
10
20
20
-29
0
VERTEX
8
1
10
20
20
-35
0
SEQEND
8
1
0
CIRCLE
8
1
62
7
10
25.65
20
-12.5
40
3.25
0
POLYLINE
8
1
62
7
70
1
66
1
40
0
41
0
0
VERTEX
8
1
10
16
20
-25
0
VERTEX
8
1
10
16
20
-3
0
VERTEX
8
1
10
19
20
-3
0
VERTEX
8
1
10
19
20
-25
0
SEQEND
8
1
0
LINE
8
1
62
7
10
2
20
-19
11
16
21
-19
0
LINE
8
1
62
7
10
19
20
-19
11
34
21
-19
0
POLYLINE
8
1
62
7
70
0
66
1
40
0
41
0
0
VERTEX
8
1
10
5.114995e-15
20
10
0
VERTEX
8
1
10
0
20
73.5
0
VERTEX
8
1
10
35.5
20
73.5
0
VERTEX
8
1
10
35.5
20
10
0
SEQEND
8
1
0
POLYLINE
8
5
62
3
6
VERDECKT
70
1
66
1
40
0
41
0
0
VERTEX
8
5
10
17.23885
20
55.1655
0
VERTEX
8
5
10
26.77502
20
55.11422
0
VERTEX
8
5
10
26.77502
20
45.38462
0
VERTEX
8
5
10
16.84697
20
45.38927
0
VERTEX
8
5
10
7.891077
20
45.27506
0
VERTEX
8
5
10
7.891077
20
55.12354
0
SEQEND
8
5
0
CIRCLE
8
5
62
3
6
VERDECKT
10
22
20
50
40
4
0
CIRCLE
8
5
62
3
6
VERDECKT
10
13
20
50
40
4
0
POLYLINE
8
1
62
7
70
1
66
1
40
0
41
0
0
VERTEX
8
1
10
15
20
25
0
VERTEX
8
1
10
15
20
39
0
VERTEX
8
1
10
20
20
39
0
VERTEX
8
1
10
20
20
25
0
SEQEND
8
1
0
POLYLINE
8
1
62
7
70
1
66
1
40
0
41
0
0
VERTEX
8
1
10
0
20
10
0
VERTEX
8
1
10
0
20
41
0
VERTEX
8
1
10
2
20
41
0
VERTEX
8
1
10
2
20
10
0
SEQEND
8
1
0
POLYLINE
8
1
62
7
70
1
66
1
40
0
41
0
0
VERTEX
8
1
10
34
20
10
0
VERTEX
8
1
10
34
20
41
0
VERTEX
8
1
10
35.3
20
41
0
VERTEX
8
1
10
35.3
20
10
0
SEQEND
8
1
0
POLYLINE
8
1
62
7
70
1
66
1
40
0
41
0
0
VERTEX
8
1
10
16
20
3
0
VERTEX
8
1
10
16
20
25
0
VERTEX
8
1
10
19
20
25
0
VERTEX
8
1
10
19
20
3
0
SEQEND
8
1
0
CIRCLE
8
1
62
7
10
9.65
20
12.5
40
3.25
0
LINE
8
1
62
7
10
2
20
19
11
16
21
19
0
LINE
8
1
62
7
10
19
20
19
11
34
21
19
0
POLYLINE
8
1
62
7
70
1
66
1
40
0
41
0
0
VERTEX
8
1
10
15
20
29
0
VERTEX
8
1
10
15
20
35
0
VERTEX
8
1
10
17
20
35
0
VERTEX
8
1
10
17
20
29
0
SEQEND
8
1
0
POLYLINE
8
1
62
7
70
1
66
1
40
0
41
0
0
VERTEX
8
1
10
18
20
29
0
VERTEX
8
1
10
18
20
35
0
VERTEX
8
1
10
20
20
35
0
VERTEX
8
1
10
20
20
29
0
SEQEND
8
1
0
LINE
8
5
62
3
6
VERDECKT
10
11
20
52
11
15
21
47
0
LINE
8
5
62
3
6
VERDECKT
10
21
20
52
11
24
21
47
0
ENDBLK
8
0
0
ENDSEC
0
SECTION
2
ENTITIES
0
INSERT
8
5
2
SOR03760-G1
10
0
20
0
0
ENDSEC
0
EOF
