  0
SECTION
  2
HEADER
  9
$ACADVER
  1
AC1009
  9
$INSBASE
 10
0.0
 20
0.0
 30
0.0
  9
$EXTMIN
 10
9.6406255942574521
 20
5.5663462730818063
 30
-0.00000001
  9
$EXTMAX
 10
46.645436806904058
 20
91.474595512405557
 30
0.00000001
  9
$LIMMIN
 10
-0.1735583261757121
 20
0.0309612105738333
  9
$LIMMAX
 10
2.389545034882858
 20
3.655282316489763
  9
$ORTHOMODE
 70
     0
  9
$REGENMODE
 70
     1
  9
$FILLMODE
 70
     1
  9
$QTEXTMODE
 70
     0
  9
$MIRRTEXT
 70
     1
  9
$DRAGMODE
 70
     2
  9
$LTSCALE
 40
1.0
  9
$OSMODE
 70
     0
  9
$ATTMODE
 70
     1
  9
$TEXTSIZE
 40
0.9295337911159354
  9
$TRACEWID
 40
0.05
  9
$TEXTSTYLE
  7
STANDARD
  9
$CLAYER
  8
0
  9
$CELTYPE
  6
BYLAYER
  9
$CECOLOR
 62
   256
  9
$DIMSCALE
 40
1.0
  9
$DIMASZ
 40
0.18
  9
$DIMEXO
 40
0.0625
  9
$DIMDLI
 40
0.38
  9
$DIMRND
 40
0.0
  9
$DIMDLE
 40
0.0
  9
$DIMEXE
 40
0.18
  9
$DIMTP
 40
0.0
  9
$DIMTM
 40
0.0
  9
$DIMTXT
 40
0.0487944247304953
  9
$DIMCEN
 40
0.09
  9
$DIMTSZ
 40
0.0
  9
$DIMTOL
 70
     0
  9
$DIMLIM
 70
     0
  9
$DIMTIH
 70
     1
  9
$DIMTOH
 70
     1
  9
$DIMSE1
 70
     0
  9
$DIMSE2
 70
     0
  9
$DIMTAD
 70
     0
  9
$DIMZIN
 70
     0
  9
$DIMBLK
  1

  9
$DIMASO
 70
     1
  9
$DIMSHO
 70
     1
  9
$DIMPOST
  1

  9
$DIMAPOST
  1

  9
$DIMALT
 70
     0
  9
$DIMALTD
 70
     2
  9
$DIMALTF
 40
25.399999999999999
  9
$DIMLFAC
 40
1.0
  9
$DIMTOFL
 70
     0
  9
$DIMTVP
 40
0.0
  9
$DIMTIX
 70
     0
  9
$DIMSOXD
 70
     0
  9
$DIMSAH
 70
     0
  9
$DIMBLK1
  1

  9
$DIMBLK2
  1

  9
$DIMSTYLE
  2
STANDARD
  9
$DIMCLRD
 70
     0
  9
$DIMCLRE
 70
     0
  9
$DIMCLRT
 70
     0
  9
$DIMTFAC
 40
1.0
  9
$DIMGAP
 40
0.09
  9
$LUNITS
 70
     2
  9
$LUPREC
 70
     0
  9
$SKETCHINC
 40
0.1
  9
$FILLETRAD
 40
126.9999999999999
  9
$AUNITS
 70
     0
  9
$AUPREC
 70
     0
  9
$MENU
  1
.
  9
$ELEVATION
 40
0.0
  9
$PELEVATION
 40
0.0
  9
$THICKNESS
 40
0.0
  9
$LIMCHECK
 70
     0
  9
$BLIPMODE
 70
     0
  9
$CHAMFERA
 40
126.9999999999999
  9
$CHAMFERB
 40
126.9999999999999
  9
$SKPOLY
 70
     0
  9
$TDCREATE
 40
2452165.8984634262
  9
$TDUPDATE
 40
2365705.9527421761
  9
$TDINDWG
 40
0.0
  9
$TDUSRTIMER
 40
0.0
  9
$USRTIMER
 70
     1
  9
$ANGBASE
 50
0.0
  9
$ANGDIR
 70
     0
  9
$PDMODE
 70
     0
  9
$PDSIZE
 40
0.0
  9
$PLINEWID
 40
0.0
  9
$COORDS
 70
     0
  9
$SPLFRAME
 70
     0
  9
$SPLINETYPE
 70
     6
  9
$SPLINESEGS
 70
     8
  9
$ATTDIA
 70
     0
  9
$ATTREQ
 70
     1
  9
$HANDLING
 70
 12289
  9
$HANDSEED
  5
C7
  9
$SURFTAB1
 70
     6
  9
$SURFTAB2
 70
     6
  9
$SURFTYPE
 70
     6
  9
$SURFU
 70
     6
  9
$SURFV
 70
     6
  9
$UCSNAME
  2

  9
$UCSORG
 10
0.0
 20
0.0
 30
0.0
  9
$UCSXDIR
 10
1.0
 20
0.0
 30
0.0
  9
$UCSYDIR
 10
0.0
 20
1.0
 30
0.0
  9
$PUCSNAME
  2

  9
$PUCSORG
 10
0.0
 20
0.0
 30
0.0
  9
$PUCSXDIR
 10
1.0
 20
0.0
 30
0.0
  9
$PUCSYDIR
 10
0.0
 20
1.0
 30
0.0
  9
$USERI1
 70
     0
  9
$USERI2
 70
     0
  9
$USERI3
 70
     0
  9
$USERI4
 70
     0
  9
$USERI5
 70
     0
  9
$USERR1
 40
0.0
  9
$USERR2
 40
0.0
  9
$USERR3
 40
0.0
  9
$USERR4
 40
0.0
  9
$USERR5
 40
0.0
  9
$WORLDVIEW
 70
     1
  9
$SHADEDGE
 70
     3
  9
$SHADEDIF
 70
    70
  9
$TILEMODE
 70
     1
  9
$MAXACTVP
 70
    64
  9
$PLIMCHECK
 70
     0
  9
$PEXTMIN
 10
1.0000000000000000E+020
 20
1.0000000000000000E+020
 30
1.0000000000000000E+020
  9
$PEXTMAX
 10
-1.0000000000000000E+020
 20
-1.0000000000000000E+020
 30
-1.0000000000000000E+020
  9
$PLIMMIN
 10
0.0
 20
0.0
  9
$PLIMMAX
 10
12.0
 20
9.0
  9
$UNITMODE
 70
     0
  9
$VISRETAIN
 70
     1
  9
$PLINEGEN
 70
     0
  9
$PSLTSCALE
 70
     1
  0
ENDSEC
  0
SECTION
  2
TABLES
  0
TABLE
  2
VPORT
 70
     1
  0
VPORT
  2
*ACTIVE
 70
     0
 10
0.0
 20
0.0
 11
1.0
 21
1.0
 12
23.149160077276321
 22
45.768258966776621
 13
0.0
 23
0.0
 14
1.0
 24
1.0
 15
0.0
 25
0.0
 16
0.0
 26
0.0
 36
1.0
 17
0.0
 27
0.0
 37
0.0
 40
91.474595512405557
 41
0.5099277733409395
 42
50.0
 43
0.0
 44
0.0
 50
0.0
 51
0.0
 71
     0
 72
   100
 73
     1
 74
     1
 75
     0
 76
     0
 77
     0
 78
     0
  0
ENDTAB
  0
TABLE
  2
LTYPE
 70
    47
  0
LTYPE
  2
CONTINUOUS
 70
     0
  3
Solid line
 72
    65
 73
     0
 40
0.0
  0
LTYPE
  2
HIDDEN
 70
     0
  3
_ _ _ _ _ _ _ _ _ _ _ _ _ _ 
 72
    65
 73
     2
 40
9.5249999999999986
 49
6.3499999999999988
 49
-3.1749999999999989
  0
LTYPE
  2
DASHED
 70
     0
  3
__ __ __ __ __ __ __ __ __ 
 72
    65
 73
     2
 40
19.04999999999999
 49
12.699999999999999
 49
-6.3499999999999988
  0
LTYPE
  2
CENTER
 70
     0
  3
____ _ ____ _ ____ _ ____ _ 
 72
    65
 73
     4
 40
50.799999999999997
 49
31.75
 49
-6.3499999999999988
 49
6.3499999999999988
 49
-6.3499999999999988
  0
LTYPE
  2
PHANTOM
 70
     0
  3
_____ _ _ _____ _ _ _____ _ _ 
 72
    65
 73
     6
 40
63.500000000000007
 49
31.75
 49
-6.3499999999999988
 49
6.3499999999999988
 49
-6.3499999999999988
 49
6.3499999999999988
 49
-6.3499999999999988
  0
LTYPE
  2
DOT
 70
     0
  3
...........................
 72
    65
 73
     2
 40
6.3499999999999988
 49
0.0
 49
-6.3499999999999988
  0
LTYPE
  2
DASHDOT
 70
     0
  3
__ . __ . __ . __ . __ . __ . 
 72
    65
 73
     4
 40
25.399999999999999
 49
12.699999999999999
 49
-6.3499999999999988
 49
0.0
 49
-6.3499999999999988
  0
LTYPE
  2
DIVIDE
 70
     0
  3
__ . . __ . . __ . . __ . . 
 72
    65
 73
     6
 40
31.75
 49
12.699999999999999
 49
-6.3499999999999988
 49
0.0
 49
-6.3499999999999988
 49
0.0
 49
-6.3499999999999988
  0
LTYPE
  2
BORDER
 70
     0
  3
__ __ . __ __ . __ __ . __ __ .
 72
    65
 73
     6
 40
44.449999999999989
 49
12.699999999999999
 49
-6.3499999999999988
 49
12.699999999999999
 49
-6.3499999999999988
 49
0.0
 49
-6.3499999999999988
  0
LTYPE
  2
RAND
 70
     0
  3
Rand __ __ . __ __ . __ __ . __
 72
    65
 73
     6
 40
1.75
 49
0.5
 49
-0.25
 49
0.5
 49
-0.25
 49
0.0
 49
-0.25
  0
LTYPE
  2
RAND2
 70
     0
  3
Rand (.5x) __.__.__.__.__.__.__
 72
    65
 73
     6
 40
0.875
 49
0.25
 49
-0.125
 49
0.25
 49
-0.125
 49
0.0
 49
-0.125
  0
LTYPE
  2
RANDX2
 70
     0
  3
Rand (2x) ____  ____  .  ____  
 72
    65
 73
     6
 40
3.5
 49
1.0
 49
-0.5
 49
1.0
 49
-0.5
 49
0.0
 49
-0.5
  0
LTYPE
  2
MITTE
 70
     0
  3
Mitte ____ _ ____ _ ____ _ ____
 72
    65
 73
     4
 40
2.0
 49
1.25
 49
-0.25
 49
0.25
 49
-0.25
  0
LTYPE
  2
MITTE2
 70
     0
  3
Mitte (.5x) ___ _ ___ _ ___ _ _
 72
    65
 73
     4
 40
1.125
 49
0.7500000000000001
 49
-0.125
 49
0.125
 49
-0.125
  0
LTYPE
  2
MITTEX2
 70
     0
  3
Mitte (2x) ________  __  ______
 72
    65
 73
     4
 40
4.0
 49
2.5
 49
-0.5
 49
0.5
 49
-0.5
  0
LTYPE
  2
STRICHPUNKT
 70
     0
  3
Strichpunkt __ . __ . __ . __ .
 72
    65
 73
     4
 40
1.0
 49
0.5
 49
-0.25
 49
0.0
 49
-0.25
  0
LTYPE
  2
STRICHPUNKT2
 70
     0
  3
Strichpunkt (.5x) _._._._._._._
 72
    65
 73
     4
 40
0.5
 49
0.25
 49
-0.125
 49
0.0
 49
-0.125
  0
LTYPE
  2
STRICHPUNKTX2
 70
     0
  3
Strichpunkt (2x) ____  .  ____ 
 72
    65
 73
     4
 40
2.0
 49
1.0
 49
-0.5
 49
0.0
 49
-0.5
  0
LTYPE
  2
STRICHLINIE
 70
     0
  3
Strichlinie __ __ __ __ __ __ _
 72
    65
 73
     2
 40
0.75
 49
0.5
 49
-0.25
  0
LTYPE
  2
STRICHLINIE2
 70
     0
  3
Strichlinie (.5x) _ _ _ _ _ _ _
 72
    65
 73
     2
 40
0.375
 49
0.25
 49
-0.125
  0
LTYPE
  2
STRICHLINIEX2
 70
     0
  3
Strichlinie (2x) ____  ____  __
 72
    65
 73
     2
 40
1.5
 49
1.0
 49
-0.5
  0
LTYPE
  2
GETRENNT
 70
     0
  3
Getrennt ____ . . ____ . . ____
 72
    65
 73
     6
 40
1.25
 49
0.5
 49
-0.25
 49
0.0
 49
-0.25
 49
0.0
 49
-0.25
  0
LTYPE
  2
GETRENNT2
 70
     0
  3
Getrennt (.5x) __..__..__..__..
 72
    65
 73
     6
 40
0.625
 49
0.25
 49
-0.125
 49
0.0
 49
-0.125
 49
0.0
 49
-0.125
  0
LTYPE
  2
GETRENNTX2
 70
     0
  3
Getrennt (2x) ________  .  .  _
 72
    65
 73
     6
 40
2.5
 49
1.0
 49
-0.5
 49
0.0
 49
-0.5
 49
0.0
 49
-0.5
  0
LTYPE
  2
PUNKT
 70
     0
  3
Punkt . . . . . . . . . . . . .
 72
    65
 73
     2
 40
0.25
 49
0.0
 49
-0.25
  0
LTYPE
  2
PUNKT2
 70
     0
  3
Punkt (.5x) ...................
 72
    65
 73
     2
 40
0.125
 49
0.0
 49
-0.125
  0
LTYPE
  2
PUNKTX2
 70
     0
  3
Punkt (2x) .  .  .  .  .  .  . 
 72
    65
 73
     2
 40
0.5
 49
0.0
 49
-0.5
  0
LTYPE
  2
VERDECKT
 70
     0
  3
Verdeckt __ __ __ __ __ __ __ _
 72
    65
 73
     2
 40
0.375
 49
0.25
 49
-0.125
  0
LTYPE
  2
VERDECKT2
 70
     0
  3
Verdeckt (.5x) _ _ _ _ _ _ _ _ 
 72
    65
 73
     2
 40
0.1875
 49
0.125
 49
-0.0625
  0
LTYPE
  2
VERDECKTX2
 70
     0
  3
Verdeckt (2x) ____ ____ ____ __
 72
    65
 73
     2
 40
0.75
 49
0.5
 49
-0.25
  0
LTYPE
  2
PHANTOM2
 70
     0
  3
Phantom (.5x) ___ _ _ ___ _ _ _
 72
    65
 73
     6
 40
1.25
 49
0.6250000000000001
 49
-0.125
 49
0.125
 49
-0.125
 49
0.125
 49
-0.125
  0
LTYPE
  2
PHANTOMX2
 70
     0
  3
Phantom (2x) ____________    __
 72
    65
 73
     6
 40
5.0
 49
2.5
 49
-0.5
 49
0.5
 49
-0.5
 49
0.5
 49
-0.5
  0
LTYPE
  2
PUNKTE
 70
     0
  3
Punkte - - - - - - - - - - - - 
 72
    65
 73
     2
 40
0.1
 49
0.05
 49
-0.05
  0
LTYPE
  2
ACAD_ISO02W100
 70
     0
  3
__ __ __ __ __ __ __ __ __ __ _
 72
    65
 73
     2
 40
15.0
 49
12.0
 49
-3.0
  0
LTYPE
  2
ACAD_ISO03W100
 70
     0
  3
__    __    __    __    __    _
 72
    65
 73
     2
 40
30.0
 49
12.0
 49
-18.0
  0
LTYPE
  2
ACAD_ISO04W100
 70
     0
  3
____ . ____ . ____ . ____ . ___
 72
    65
 73
     4
 40
30.5
 49
24.0
 49
-3.0
 49
0.5
 49
-3.0
  0
LTYPE
  2
ACAD_ISO05W100
 70
     0
  3
____ .. ____ .. ____ .. ____ ..
 72
    65
 73
     6
 40
34.0
 49
24.0
 49
-3.0
 49
0.5
 49
-3.0
 49
0.5
 49
-3.0
  0
LTYPE
  2
ACAD_ISO06W100
 70
     0
  3
____ ... ____ ... ____ ... ____
 72
    65
 73
     6
 40
34.0
 49
24.0
 49
-3.0
 49
0.5
 49
-3.0
 49
0.5
 49
-3.0
  0
LTYPE
  2
ACAD_ISO07W100
 70
     0
  3
. . . . . . . . . . . . . . . .
 72
    65
 73
     2
 40
3.5
 49
0.5
 49
-3.0
  0
LTYPE
  2
ACAD_ISO08W100
 70
     0
  3
____ __ ____ __ ____ __ ____ __
 72
    65
 73
     4
 40
36.0
 49
24.0
 49
-3.0
 49
6.0
 49
-3.0
  0
LTYPE
  2
ACAD_ISO09W100
 70
     0
  3
____ __ __ ____ __ __ ____ __ _
 72
    65
 73
     6
 40
45.0
 49
24.0
 49
-3.0
 49
6.0
 49
-3.0
 49
6.0
 49
-3.0
  0
LTYPE
  2
ACAD_ISO10W100
 70
     0
  3
__ . __ . __ . __ . __ . __ . _
 72
    65
 73
     4
 40
18.5
 49
12.0
 49
-3.0
 49
0.5
 49
-3.0
  0
LTYPE
  2
ACAD_ISO11W100
 70
     0
  3
__ __ . __ __ . __ __ . __ __ .
 72
    65
 73
     6
 40
33.5
 49
12.0
 49
-3.0
 49
12.0
 49
-3.0
 49
0.5
 49
-3.0
  0
LTYPE
  2
ACAD_ISO12W100
 70
     0
  3
__ . . __ . . __ . . __ . . __ 
 72
    65
 73
     6
 40
22.0
 49
12.0
 49
-3.0
 49
0.5
 49
-3.0
 49
0.5
 49
-3.0
  0
LTYPE
  2
ACAD_ISO13W100
 70
     0
  3
__ __ . . __ __ . . __ __ . . _
 72
    65
 73
     6
 40
33.5
 49
12.0
 49
-3.0
 49
12.0
 49
-3.0
 49
0.5
 49
-3.0
  0
LTYPE
  2
ACAD_ISO14W100
 70
     0
  3
__ . . . __ . . . __ . . . __ .
 72
    65
 73
     6
 40
22.0
 49
12.0
 49
-3.0
 49
0.5
 49
-3.0
 49
0.5
 49
-3.0
  0
LTYPE
  2
ACAD_ISO15W100
 70
     0
  3
__ __ . . . __ __ . . . __ __ .
 72
    65
 73
     6
 40
33.5
 49
12.0
 49
-3.0
 49
12.0
 49
-3.0
 49
0.5
 49
-3.0
  0
ENDTAB
  0
TABLE
  2
LAYER
 70
     2
  0
LAYER
  2
0
 70
     0
 62
     7
  6
CONTINUOUS
  0
LAYER
  2
1
 70
     0
 62
     7
  6
CONTINUOUS
  0
ENDTAB
  0
TABLE
  2
STYLE
 70
     5
  0
STYLE
  2
STANDARD
 70
     0
 40
0.0
 41
1.0
 50
0.0
 71
     0
 42
0.9295337911159354
  3
txt
  4

  0
STYLE
  2
ITALIC
 70
     0
 40
0.0
 41
1.0
 50
0.0
 71
     0
 42
0.9295337911159354
  3
ITALIC
  4

  0
STYLE
  2
SIMPLEX
 70
     0
 40
0.0
 41
1.0
 50
0.0
 71
     0
 42
0.9295337911159354
  3
SIMPLEX
  4

  0
STYLE
  2
COMPLEX
 70
     0
 40
0.0
 41
1.0
 50
0.0
 71
     0
 42
0.9295337911159354
  3
COMPLEX
  4

  0
STYLE
  2
ARIALB
 70
     0
 40
0.0
 41
1.0
 50
0.0
 71
     0
 42
0.9295337911159354
  3
txt
  4

  0
ENDTAB
  0
TABLE
  2
VIEW
 70
     0
  0
ENDTAB
  0
TABLE
  2
UCS
 70
     0
  0
ENDTAB
  0
TABLE
  2
APPID
 70
     1
  0
APPID
  2
ACAD
 70
     0
  0
ENDTAB
  0
TABLE
  2
DIMSTYLE
 70
     1
  0
DIMSTYLE
  2
STANDARD
 70
     0
  3

  4

  5

  6

  7

 40
1.0
 41
0.18
 42
0.0625
 43
0.38
 44
0.18
 45
0.0
 46
0.0
 47
0.0
 48
0.0
140
0.18
141
0.09
142
0.0
143
25.399999999999999
144
1.0
145
0.0
146
1.0
147
0.09
 71
     0
 72
     0
 73
     1
 74
     1
 75
     0
 76
     0
 77
     0
 78
     0
170
     0
171
     2
172
     0
173
     0
174
     0
175
     0
176
     0
177
     0
178
     0
  0
ENDTAB
  0
ENDSEC
  0
SECTION
  2
BLOCKS
  0
BLOCK
  8
0
  2
$MODEL_SPACE
 70
     0
 10
0.0
 20
0.0
 30
0.0
  3
$MODEL_SPACE
  1

  0
ENDBLK
  5
21
  8
0
  0
BLOCK
 67
     1
  8
0
  2
$PAPER_SPACE
 70
     0
 10
0.0
 20
0.0
 30
0.0
  3
$PAPER_SPACE
  1

  0
ENDBLK
  5
1D
 67
     1
  8
0
  0
ENDSEC
  0
SECTION
  2
ENTITIES
  0
POLYLINE
  5
5A
  8
1
  6
CONTINUOUS
 62
     7
 66
     1
 10
0.0
 20
0.0
 30
0.0
 70
     1
  0
VERTEX
  5
85
  8
1
  6
CONTINUOUS
 62
     7
 10
9.7796877454153517
 20
10.451217713052859
 30
0.0
  0
VERTEX
  5
86
  8
1
  6
CONTINUOUS
 62
     7
 10
28.124603473570769
 20
10.451217713052859
 30
0.0
  0
VERTEX
  5
87
  8
1
  6
CONTINUOUS
 62
     7
 10
28.124603473570769
 20
91.474595512405557
 30
0.0
  0
VERTEX
  5
88
  8
1
  6
CONTINUOUS
 62
     7
 10
9.7796877454153517
 20
91.474595512405557
 30
0.0
  0
SEQEND
  5
89
  8
1
  6
CONTINUOUS
 62
     7
  0
CIRCLE
  5
5B
  8
1
  6
CONTINUOUS
 62
     7
 10
18.81284781647966
 20
17.560790717526238
 30
0.0
 40
3.5453727885620889
  0
CIRCLE
  5
5C
  8
1
  6
CONTINUOUS
 62
     7
 10
18.81284781647966
 20
82.824679606415089
 30
0.0
 40
3.527777777777787
  0
POLYLINE
  5
5D
  8
1
  6
CONTINUOUS
 62
     7
 66
     1
 10
0.0
 20
0.0
 30
0.0
 70
     1
  0
VERTEX
  5
8A
  8
1
  6
CONTINUOUS
 62
     7
 10
9.6406255942574521
 20
27.791346273081789
 30
0.0
  0
VERTEX
  5
8B
  8
1
  6
CONTINUOUS
 62
     7
 10
27.808681149813051
 20
27.791346273081789
 30
0.0
  0
VERTEX
  5
8C
  8
1
  6
CONTINUOUS
 62
     7
 10
27.808681149813051
 20
73.123290717526231
 30
0.0
  0
VERTEX
  5
8D
  8
1
  6
CONTINUOUS
 62
     7
 10
9.6406255942574521
 20
73.123290717526231
 30
0.0
  0
SEQEND
  5
8E
  8
1
  6
CONTINUOUS
 62
     7
  0
POLYLINE
  5
5E
  8
1
  6
CONTINUOUS
 62
     7
 66
     1
 10
0.0
 20
0.0
 30
0.0
 70
     1
  0
VERTEX
  5
8F
  8
1
  6
CONTINUOUS
 62
     7
 10
9.6406255942574521
 20
73.123290717526231
 30
0.0
  0
VERTEX
  5
90
  8
1
  6
CONTINUOUS
 62
     7
 10
27.80868114981299
 20
73.123290717526231
 30
0.0
  0
VERTEX
  5
91
  8
1
  6
CONTINUOUS
 62
     7
 10
27.80868114981299
 20
57.248290717526217
 30
0.0
  0
VERTEX
  5
92
  8
1
  6
CONTINUOUS
 62
     7
 10
9.6406255942574521
 20
57.248290717526217
 30
0.0
  0
SEQEND
  5
93
  8
1
  6
CONTINUOUS
 62
     7
  0
LINE
  5
5F
  8
1
  6
CONTINUOUS
 62
     7
 10
9.6406255942574521
 20
47.89967960641512
 30
0.0
 11
11.58090337203523
 21
47.89967960641512
 31
0.0
  0
LINE
  5
60
  8
1
  6
CONTINUOUS
 62
     7
 10
11.58090337203523
 20
47.89967960641512
 30
0.0
 11
11.58090337203523
 21
29.555235161970689
 31
0.0
  0
LINE
  5
61
  8
1
  6
CONTINUOUS
 62
     7
 10
11.58090337203523
 20
29.731624050859569
 30
0.0
 11
25.69201448314633
 21
29.731624050859569
 31
0.0
  0
LINE
  5
62
  8
1
  6
CONTINUOUS
 62
     7
 10
25.51562559425744
 20
29.731624050859569
 30
0.0
 11
25.51562559425744
 21
47.723290717526247
 31
0.0
  0
LINE
  5
63
  8
1
  6
CONTINUOUS
 62
     7
 10
25.51562559425744
 20
47.723290717526247
 30
0.0
 11
27.985070038701888
 21
47.723290717526247
 31
0.0
  0
POLYLINE
  5
64
  8
1
  6
CONTINUOUS
 62
     7
 66
     1
 10
0.0
 20
0.0
 30
0.0
  0
VERTEX
  5
94
  8
1
  6
CONTINUOUS
 62
     7
 10
9.8170144831463357
 20
53.19134627308177
 30
0.0
  0
VERTEX
  5
95
  8
1
  6
CONTINUOUS
 62
     7
 10
27.985070038701888
 20
53.19134627308177
 30
0.0
  0
SEQEND
  5
96
  8
1
  6
CONTINUOUS
 62
     7
  0
POLYLINE
  5
65
  8
1
  6
CONTINUOUS
 62
     7
 66
     1
 10
0.0
 20
0.0
 30
0.0
 70
     1
  0
VERTEX
  5
97
  8
1
  6
CONTINUOUS
 62
     7
 10
11.58090337203523
 20
40.491346273081788
 30
0.0
  0
VERTEX
  5
98
  8
1
  6
CONTINUOUS
 62
     7
 10
25.51562559425744
 20
40.491346273081788
 30
0.0
  0
VERTEX
  5
99
  8
1
  6
CONTINUOUS
 62
     7
 10
25.51562559425744
 20
40.314957384192887
 30
0.0
  0
VERTEX
  5
9A
  8
1
  6
CONTINUOUS
 62
     7
 10
11.58090337203523
 20
40.314957384192887
 30
0.0
  0
SEQEND
  5
9B
  8
1
  6
CONTINUOUS
 62
     7
  0
POLYLINE
  5
66
  8
1
  6
CONTINUOUS
 62
     7
 66
     1
 10
0.0
 20
0.0
 30
0.0
 70
     1
  0
VERTEX
  5
9C
  8
1
  6
CONTINUOUS
 62
     7
 10
11.58090337203523
 20
36.963568495304017
 30
0.0
  0
VERTEX
  5
9D
  8
1
  6
CONTINUOUS
 62
     7
 10
25.51562559425744
 20
36.963568495304017
 30
0.0
  0
VERTEX
  5
9E
  8
1
  6
CONTINUOUS
 62
     7
 10
25.51562559425744
 20
36.78717960641513
 30
0.0
  0
VERTEX
  5
9F
  8
1
  6
CONTINUOUS
 62
     7
 10
11.58090337203523
 20
36.78717960641513
 30
0.0
  0
SEQEND
  5
A0
  8
1
  6
CONTINUOUS
 62
     7
  0
POLYLINE
  5
67
  8
1
  6
CONTINUOUS
 62
     7
 66
     1
 10
0.0
 20
0.0
 30
0.0
 70
     1
  0
VERTEX
  5
A1
  8
1
  6
CONTINUOUS
 62
     7
 10
14.579514483146321
 20
46.841346273081783
 30
0.0
  0
VERTEX
  5
A2
  8
1
  6
CONTINUOUS
 62
     7
 10
22.51701448314633
 20
46.841346273081783
 30
0.0
  0
VERTEX
  5
A3
  8
1
  6
CONTINUOUS
 62
     7
 10
22.51701448314633
 20
44.01912405085956
 30
0.0
  0
VERTEX
  5
A4
  8
1
  6
CONTINUOUS
 62
     7
 10
14.579514483146321
 20
44.01912405085956
 30
0.0
  0
SEQEND
  5
A5
  8
1
  6
CONTINUOUS
 62
     7
  0
TEXT
  5
69
  8
1
  6
CONTINUOUS
 62
     7
 10
12.286458927590781
 20
68.184401828637363
 30
0.0
 40
3.0
  1
wöhner
  7
ARIALB
  0
LINE
  5
6A
  8
1
  6
CONTINUOUS
 62
     7
 10
12.28645892759077
 20
10.1524573841929
 30
0.0
 11
12.28645892759077
 21
5.5663462730818063
 31
0.0
  0
LINE
  5
6B
  8
1
  6
CONTINUOUS
 62
     7
 10
12.28645892759077
 20
5.5663462730818063
 30
0.0
 11
25.868403372035232
 21
5.5663462730818063
 31
0.0
  0
LINE
  5
6C
  8
1
  6
CONTINUOUS
 62
     7
 10
25.868403372035232
 20
5.5663462730818063
 30
0.0
 11
25.868403372035232
 21
10.1524573841929
 31
0.0
  0
LINE
  5
6D
  8
1
  6
CONTINUOUS
 62
     7
 10
14.22673670536855
 20
10.32884627308179
 30
0.0
 11
14.22673670536855
 21
7.5066240508595854
 31
0.0
  0
LINE
  5
6E
  8
1
  6
CONTINUOUS
 62
     7
 10
14.22673670536855
 20
7.5066240508595854
 30
0.0
 11
24.104514483146328
 21
7.5066240508595854
 31
0.0
  0
LINE
  5
6F
  8
1
  6
CONTINUOUS
 62
     7
 10
24.104514483146328
 20
7.5066240508595854
 30
0.0
 11
24.104514483146328
 21
10.505235161970679
 31
0.0
  0
POLYLINE
  5
70
  8
1
  6
CONTINUOUS
 62
     7
 66
     1
 10
0.0
 20
0.0
 30
0.0
 70
     1
  0
VERTEX
  5
A6
  8
1
  6
CONTINUOUS
 62
     7
 10
28.300521078748659
 20
10.45121771305284
 30
0.0
  0
VERTEX
  5
A7
  8
1
  6
CONTINUOUS
 62
     7
 10
46.645436806904058
 20
10.45121771305284
 30
0.0
  0
VERTEX
  5
A8
  8
1
  6
CONTINUOUS
 62
     7
 10
46.645436806904058
 20
91.474595512405557
 30
0.0
  0
VERTEX
  5
A9
  8
1
  6
CONTINUOUS
 62
     7
 10
28.300521078748659
 20
91.474595512405557
 30
0.0
  0
SEQEND
  5
AA
  8
1
  6
CONTINUOUS
 62
     7
  0
CIRCLE
  5
71
  8
1
  6
CONTINUOUS
 62
     7
 10
37.333681149812968
 20
17.560790717526238
 30
0.0
 40
3.5453727885620889
  0
CIRCLE
  5
72
  8
1
  6
CONTINUOUS
 62
     7
 10
37.333681149812968
 20
82.824679606415089
 30
0.0
 40
3.527777777777787
  0
POLYLINE
  5
73
  8
1
  6
CONTINUOUS
 62
     7
 66
     1
 10
0.0
 20
0.0
 30
0.0
 70
     1
  0
VERTEX
  5
AB
  8
1
  6
CONTINUOUS
 62
     7
 10
28.161458927590761
 20
27.791346273081778
 30
0.0
  0
VERTEX
  5
AC
  8
1
  6
CONTINUOUS
 62
     7
 10
46.329514483146347
 20
27.791346273081778
 30
0.0
  0
VERTEX
  5
AD
  8
1
  6
CONTINUOUS
 62
     7
 10
46.329514483146347
 20
73.123290717526203
 30
0.0
  0
VERTEX
  5
AE
  8
1
  6
CONTINUOUS
 62
     7
 10
28.161458927590761
 20
73.123290717526203
 30
0.0
  0
SEQEND
  5
AF
  8
1
  6
CONTINUOUS
 62
     7
  0
POLYLINE
  5
74
  8
1
  6
CONTINUOUS
 62
     7
 66
     1
 10
0.0
 20
0.0
 30
0.0
 70
     1
  0
VERTEX
  5
B0
  8
1
  6
CONTINUOUS
 62
     7
 10
28.161458927590761
 20
73.123290717526203
 30
0.0
  0
VERTEX
  5
B1
  8
1
  6
CONTINUOUS
 62
     7
 10
46.329514483146269
 20
73.123290717526203
 30
0.0
  0
VERTEX
  5
B2
  8
1
  6
CONTINUOUS
 62
     7
 10
46.329514483146269
 20
57.24829071752621
 30
0.0
  0
VERTEX
  5
B3
  8
1
  6
CONTINUOUS
 62
     7
 10
28.161458927590761
 20
57.24829071752621
 30
0.0
  0
SEQEND
  5
B4
  8
1
  6
CONTINUOUS
 62
     7
  0
LINE
  5
75
  8
1
  6
CONTINUOUS
 62
     7
 10
28.161458927590761
 20
47.899679606415113
 30
0.0
 11
30.101736705368541
 21
47.899679606415113
 31
0.0
  0
LINE
  5
76
  8
1
  6
CONTINUOUS
 62
     7
 10
30.101736705368541
 20
47.899679606415113
 30
0.0
 11
30.101736705368541
 21
29.555235161970689
 31
0.0
  0
LINE
  5
77
  8
1
  6
CONTINUOUS
 62
     7
 10
30.101736705368541
 20
29.731624050859558
 30
0.0
 11
44.212847816479652
 21
29.731624050859558
 31
0.0
  0
LINE
  5
78
  8
1
  6
CONTINUOUS
 62
     7
 10
44.036458927590751
 20
29.731624050859558
 30
0.0
 11
44.036458927590751
 21
47.72329071752619
 31
0.0
  0
LINE
  5
79
  8
1
  6
CONTINUOUS
 62
     7
 10
44.036458927590751
 20
47.72329071752619
 30
0.0
 11
46.505903372035199
 21
47.72329071752619
 31
0.0
  0
POLYLINE
  5
7A
  8
1
  6
CONTINUOUS
 62
     7
 66
     1
 10
0.0
 20
0.0
 30
0.0
  0
VERTEX
  5
B5
  8
1
  6
CONTINUOUS
 62
     7
 10
28.337847816479631
 20
53.191346273081763
 30
0.0
  0
VERTEX
  5
B6
  8
1
  6
CONTINUOUS
 62
     7
 10
46.505903372035199
 20
53.191346273081763
 30
0.0
  0
SEQEND
  5
B7
  8
1
  6
CONTINUOUS
 62
     7
  0
POLYLINE
  5
7B
  8
1
  6
CONTINUOUS
 62
     7
 66
     1
 10
0.0
 20
0.0
 30
0.0
 70
     1
  0
VERTEX
  5
B8
  8
1
  6
CONTINUOUS
 62
     7
 10
30.101736705368541
 20
40.491346273081788
 30
0.0
  0
VERTEX
  5
B9
  8
1
  6
CONTINUOUS
 62
     7
 10
44.036458927590751
 20
40.491346273081788
 30
0.0
  0
VERTEX
  5
BA
  8
1
  6
CONTINUOUS
 62
     7
 10
44.036458927590751
 20
40.314957384192887
 30
0.0
  0
VERTEX
  5
BB
  8
1
  6
CONTINUOUS
 62
     7
 10
30.101736705368541
 20
40.314957384192887
 30
0.0
  0
SEQEND
  5
BC
  8
1
  6
CONTINUOUS
 62
     7
  0
POLYLINE
  5
7C
  8
1
  6
CONTINUOUS
 62
     7
 66
     1
 10
0.0
 20
0.0
 30
0.0
 70
     1
  0
VERTEX
  5
BD
  8
1
  6
CONTINUOUS
 62
     7
 10
30.101736705368541
 20
36.96356849530401
 30
0.0
  0
VERTEX
  5
BE
  8
1
  6
CONTINUOUS
 62
     7
 10
44.036458927590751
 20
36.96356849530401
 30
0.0
  0
VERTEX
  5
BF
  8
1
  6
CONTINUOUS
 62
     7
 10
44.036458927590751
 20
36.787179606415101
 30
0.0
  0
VERTEX
  5
C0
  8
1
  6
CONTINUOUS
 62
     7
 10
30.101736705368541
 20
36.787179606415101
 30
0.0
  0
SEQEND
  5
C1
  8
1
  6
CONTINUOUS
 62
     7
  0
POLYLINE
  5
7D
  8
1
  6
CONTINUOUS
 62
     7
 66
     1
 10
0.0
 20
0.0
 30
0.0
 70
     1
  0
VERTEX
  5
C2
  8
1
  6
CONTINUOUS
 62
     7
 10
33.100347816479641
 20
46.841346273081783
 30
0.0
  0
VERTEX
  5
C3
  8
1
  6
CONTINUOUS
 62
     7
 10
41.037847816479633
 20
46.841346273081783
 30
0.0
  0
VERTEX
  5
C4
  8
1
  6
CONTINUOUS
 62
     7
 10
41.037847816479633
 20
44.01912405085956
 30
0.0
  0
VERTEX
  5
C5
  8
1
  6
CONTINUOUS
 62
     7
 10
33.100347816479641
 20
44.01912405085956
 30
0.0
  0
SEQEND
  5
C6
  8
1
  6
CONTINUOUS
 62
     7
  0
TEXT
  5
7E
  8
1
  6
CONTINUOUS
 62
     7
 10
35.746181149813012
 20
68.360790717526214
 30
0.0
 40
3.0
  1
N
  7
ARIALB
  0
ENDSEC
  0
EOF
