  0
SECTION
  2
HEADER
  9
$ACADVER
  1
AC1009
  9
$INSBASE
 10
0.0
 20
0.0
 30
0.0
  9
$EXTMIN
 10
9.6406255942574521
 20
5.5923619325185516
 30
-0.00000001
  9
$EXTMAX
 10
83.385289042778609
 20
91.500611171842294
 30
0.00000001
  9
$LIMMIN
 10
0.3214353286769593
 20
-0.3026982969219813
  9
$LIMMAX
 10
3.3410022554583181
 20
3.9670788450109611
  9
$ORTHOMODE
 70
     0
  9
$REGENMODE
 70
     1
  9
$FILLMODE
 70
     1
  9
$QTEXTMODE
 70
     0
  9
$MIRRTEXT
 70
     1
  9
$DRAGMODE
 70
     2
  9
$LTSCALE
 40
1.0
  9
$OSMODE
 70
     0
  9
$ATTMODE
 70
     1
  9
$TEXTSIZE
 40
1.095074641008686
  9
$TRACEWID
 40
0.05
  9
$TEXTSTYLE
  7
STANDARD
  9
$CLAYER
  8
0
  9
$CELTYPE
  6
BYLAYER
  9
$CECOLOR
 62
   256
  9
$DIMSCALE
 40
1.0
  9
$DIMASZ
 40
0.18
  9
$DIMEXO
 40
0.0625
  9
$DIMDLI
 40
0.38
  9
$DIMRND
 40
0.0
  9
$DIMDLE
 40
0.0
  9
$DIMEXE
 40
0.18
  9
$DIMTP
 40
0.0
  9
$DIMTM
 40
0.0
  9
$DIMTXT
 40
0.0574842331238156
  9
$DIMCEN
 40
0.09
  9
$DIMTSZ
 40
0.0
  9
$DIMTOL
 70
     0
  9
$DIMLIM
 70
     0
  9
$DIMTIH
 70
     1
  9
$DIMTOH
 70
     1
  9
$DIMSE1
 70
     0
  9
$DIMSE2
 70
     0
  9
$DIMTAD
 70
     0
  9
$DIMZIN
 70
     0
  9
$DIMBLK
  1

  9
$DIMASO
 70
     1
  9
$DIMSHO
 70
     1
  9
$DIMPOST
  1

  9
$DIMAPOST
  1

  9
$DIMALT
 70
     0
  9
$DIMALTD
 70
     2
  9
$DIMALTF
 40
25.399999999999999
  9
$DIMLFAC
 40
1.0
  9
$DIMTOFL
 70
     0
  9
$DIMTVP
 40
0.0
  9
$DIMTIX
 70
     0
  9
$DIMSOXD
 70
     0
  9
$DIMSAH
 70
     0
  9
$DIMBLK1
  1

  9
$DIMBLK2
  1

  9
$DIMSTYLE
  2
STANDARD
  9
$DIMCLRD
 70
     0
  9
$DIMCLRE
 70
     0
  9
$DIMCLRT
 70
     0
  9
$DIMTFAC
 40
1.0
  9
$DIMGAP
 40
0.09
  9
$LUNITS
 70
     2
  9
$LUPREC
 70
     0
  9
$SKETCHINC
 40
0.1
  9
$FILLETRAD
 40
3225.799999999997
  9
$AUNITS
 70
     0
  9
$AUPREC
 70
     0
  9
$MENU
  1
.
  9
$ELEVATION
 40
0.0
  9
$PELEVATION
 40
0.0
  9
$THICKNESS
 40
0.0
  9
$LIMCHECK
 70
     0
  9
$BLIPMODE
 70
     0
  9
$CHAMFERA
 40
3225.799999999997
  9
$CHAMFERB
 40
3225.799999999997
  9
$SKPOLY
 70
     0
  9
$TDCREATE
 40
2452165.8989401618
  9
$TDUPDATE
 40
2365705.9527421761
  9
$TDINDWG
 40
0.0
  9
$TDUSRTIMER
 40
0.0
  9
$USRTIMER
 70
     1
  9
$ANGBASE
 50
0.0
  9
$ANGDIR
 70
     0
  9
$PDMODE
 70
     0
  9
$PDSIZE
 40
0.0
  9
$PLINEWID
 40
0.0
  9
$COORDS
 70
     0
  9
$SPLFRAME
 70
     0
  9
$SPLINETYPE
 70
     6
  9
$SPLINESEGS
 70
     8
  9
$ATTDIA
 70
     0
  9
$ATTREQ
 70
     1
  9
$HANDLING
 70
 12289
  9
$HANDSEED
  5
126
  9
$SURFTAB1
 70
     6
  9
$SURFTAB2
 70
     6
  9
$SURFTYPE
 70
     6
  9
$SURFU
 70
     6
  9
$SURFV
 70
     6
  9
$UCSNAME
  2

  9
$UCSORG
 10
0.0
 20
0.0
 30
0.0
  9
$UCSXDIR
 10
1.0
 20
0.0
 30
0.0
  9
$UCSYDIR
 10
0.0
 20
1.0
 30
0.0
  9
$PUCSNAME
  2

  9
$PUCSORG
 10
0.0
 20
0.0
 30
0.0
  9
$PUCSXDIR
 10
1.0
 20
0.0
 30
0.0
  9
$PUCSYDIR
 10
0.0
 20
1.0
 30
0.0
  9
$USERI1
 70
     0
  9
$USERI2
 70
     0
  9
$USERI3
 70
     0
  9
$USERI4
 70
     0
  9
$USERI5
 70
     0
  9
$USERR1
 40
0.0
  9
$USERR2
 40
0.0
  9
$USERR3
 40
0.0
  9
$USERR4
 40
0.0
  9
$USERR5
 40
0.0
  9
$WORLDVIEW
 70
     1
  9
$SHADEDGE
 70
     3
  9
$SHADEDIF
 70
    70
  9
$TILEMODE
 70
     1
  9
$MAXACTVP
 70
    64
  9
$PLIMCHECK
 70
     0
  9
$PEXTMIN
 10
1.0000000000000000E+020
 20
1.0000000000000000E+020
 30
1.0000000000000000E+020
  9
$PEXTMAX
 10
-1.0000000000000000E+020
 20
-1.0000000000000000E+020
 30
-1.0000000000000000E+020
  9
$PLIMMIN
 10
0.0
 20
0.0
  9
$PLIMMAX
 10
12.0
 20
9.0
  9
$UNITMODE
 70
     0
  9
$VISRETAIN
 70
     1
  9
$PLINEGEN
 70
     0
  9
$PSLTSCALE
 70
     1
  0
ENDSEC
  0
SECTION
  2
TABLES
  0
TABLE
  2
VPORT
 70
     1
  0
VPORT
  2
*ACTIVE
 70
     0
 10
0.0
 20
0.0
 11
1.0
 21
1.0
 12
42.014079850066267
 22
45.447607288999158
 13
0.0
 23
0.0
 14
1.0
 24
1.0
 15
0.0
 25
0.0
 16
0.0
 26
0.0
 36
1.0
 17
0.0
 27
0.0
 37
0.0
 40
91.500611171842294
 41
0.9113085472858454
 42
50.0
 43
0.0
 44
0.0
 50
0.0
 51
0.0
 71
     0
 72
   100
 73
     1
 74
     1
 75
     0
 76
     0
 77
     0
 78
     0
  0
ENDTAB
  0
TABLE
  2
LTYPE
 70
    47
  0
LTYPE
  2
CONTINUOUS
 70
     0
  3
Solid line
 72
    65
 73
     0
 40
0.0
  0
LTYPE
  2
HIDDEN
 70
     0
  3
_ _ _ _ _ _ _ _ _ _ _ _ _ _ 
 72
    65
 73
     2
 40
9.5249999999999986
 49
6.3499999999999988
 49
-3.1749999999999989
  0
LTYPE
  2
DASHED
 70
     0
  3
__ __ __ __ __ __ __ __ __ 
 72
    65
 73
     2
 40
19.04999999999999
 49
12.699999999999999
 49
-6.3499999999999988
  0
LTYPE
  2
CENTER
 70
     0
  3
____ _ ____ _ ____ _ ____ _ 
 72
    65
 73
     4
 40
50.799999999999997
 49
31.75
 49
-6.3499999999999988
 49
6.3499999999999988
 49
-6.3499999999999988
  0
LTYPE
  2
PHANTOM
 70
     0
  3
_____ _ _ _____ _ _ _____ _ _ 
 72
    65
 73
     6
 40
63.500000000000007
 49
31.75
 49
-6.3499999999999988
 49
6.3499999999999988
 49
-6.3499999999999988
 49
6.3499999999999988
 49
-6.3499999999999988
  0
LTYPE
  2
DOT
 70
     0
  3
...........................
 72
    65
 73
     2
 40
6.3499999999999988
 49
0.0
 49
-6.3499999999999988
  0
LTYPE
  2
DASHDOT
 70
     0
  3
__ . __ . __ . __ . __ . __ . 
 72
    65
 73
     4
 40
25.399999999999999
 49
12.699999999999999
 49
-6.3499999999999988
 49
0.0
 49
-6.3499999999999988
  0
LTYPE
  2
DIVIDE
 70
     0
  3
__ . . __ . . __ . . __ . . 
 72
    65
 73
     6
 40
31.75
 49
12.699999999999999
 49
-6.3499999999999988
 49
0.0
 49
-6.3499999999999988
 49
0.0
 49
-6.3499999999999988
  0
LTYPE
  2
BORDER
 70
     0
  3
__ __ . __ __ . __ __ . __ __ .
 72
    65
 73
     6
 40
44.449999999999989
 49
12.699999999999999
 49
-6.3499999999999988
 49
12.699999999999999
 49
-6.3499999999999988
 49
0.0
 49
-6.3499999999999988
  0
LTYPE
  2
RAND
 70
     0
  3
Rand __ __ . __ __ . __ __ . __
 72
    65
 73
     6
 40
1.75
 49
0.5
 49
-0.25
 49
0.5
 49
-0.25
 49
0.0
 49
-0.25
  0
LTYPE
  2
RAND2
 70
     0
  3
Rand (.5x) __.__.__.__.__.__.__
 72
    65
 73
     6
 40
0.875
 49
0.25
 49
-0.125
 49
0.25
 49
-0.125
 49
0.0
 49
-0.125
  0
LTYPE
  2
RANDX2
 70
     0
  3
Rand (2x) ____  ____  .  ____  
 72
    65
 73
     6
 40
3.5
 49
1.0
 49
-0.5
 49
1.0
 49
-0.5
 49
0.0
 49
-0.5
  0
LTYPE
  2
MITTE
 70
     0
  3
Mitte ____ _ ____ _ ____ _ ____
 72
    65
 73
     4
 40
2.0
 49
1.25
 49
-0.25
 49
0.25
 49
-0.25
  0
LTYPE
  2
MITTE2
 70
     0
  3
Mitte (.5x) ___ _ ___ _ ___ _ _
 72
    65
 73
     4
 40
1.125
 49
0.7500000000000001
 49
-0.125
 49
0.125
 49
-0.125
  0
LTYPE
  2
MITTEX2
 70
     0
  3
Mitte (2x) ________  __  ______
 72
    65
 73
     4
 40
4.0
 49
2.5
 49
-0.5
 49
0.5
 49
-0.5
  0
LTYPE
  2
STRICHPUNKT
 70
     0
  3
Strichpunkt __ . __ . __ . __ .
 72
    65
 73
     4
 40
1.0
 49
0.5
 49
-0.25
 49
0.0
 49
-0.25
  0
LTYPE
  2
STRICHPUNKT2
 70
     0
  3
Strichpunkt (.5x) _._._._._._._
 72
    65
 73
     4
 40
0.5
 49
0.25
 49
-0.125
 49
0.0
 49
-0.125
  0
LTYPE
  2
STRICHPUNKTX2
 70
     0
  3
Strichpunkt (2x) ____  .  ____ 
 72
    65
 73
     4
 40
2.0
 49
1.0
 49
-0.5
 49
0.0
 49
-0.5
  0
LTYPE
  2
STRICHLINIE
 70
     0
  3
Strichlinie __ __ __ __ __ __ _
 72
    65
 73
     2
 40
0.75
 49
0.5
 49
-0.25
  0
LTYPE
  2
STRICHLINIE2
 70
     0
  3
Strichlinie (.5x) _ _ _ _ _ _ _
 72
    65
 73
     2
 40
0.375
 49
0.25
 49
-0.125
  0
LTYPE
  2
STRICHLINIEX2
 70
     0
  3
Strichlinie (2x) ____  ____  __
 72
    65
 73
     2
 40
1.5
 49
1.0
 49
-0.5
  0
LTYPE
  2
GETRENNT
 70
     0
  3
Getrennt ____ . . ____ . . ____
 72
    65
 73
     6
 40
1.25
 49
0.5
 49
-0.25
 49
0.0
 49
-0.25
 49
0.0
 49
-0.25
  0
LTYPE
  2
GETRENNT2
 70
     0
  3
Getrennt (.5x) __..__..__..__..
 72
    65
 73
     6
 40
0.625
 49
0.25
 49
-0.125
 49
0.0
 49
-0.125
 49
0.0
 49
-0.125
  0
LTYPE
  2
GETRENNTX2
 70
     0
  3
Getrennt (2x) ________  .  .  _
 72
    65
 73
     6
 40
2.5
 49
1.0
 49
-0.5
 49
0.0
 49
-0.5
 49
0.0
 49
-0.5
  0
LTYPE
  2
PUNKT
 70
     0
  3
Punkt . . . . . . . . . . . . .
 72
    65
 73
     2
 40
0.25
 49
0.0
 49
-0.25
  0
LTYPE
  2
PUNKT2
 70
     0
  3
Punkt (.5x) ...................
 72
    65
 73
     2
 40
0.125
 49
0.0
 49
-0.125
  0
LTYPE
  2
PUNKTX2
 70
     0
  3
Punkt (2x) .  .  .  .  .  .  . 
 72
    65
 73
     2
 40
0.5
 49
0.0
 49
-0.5
  0
LTYPE
  2
VERDECKT
 70
     0
  3
Verdeckt __ __ __ __ __ __ __ _
 72
    65
 73
     2
 40
0.375
 49
0.25
 49
-0.125
  0
LTYPE
  2
VERDECKT2
 70
     0
  3
Verdeckt (.5x) _ _ _ _ _ _ _ _ 
 72
    65
 73
     2
 40
0.1875
 49
0.125
 49
-0.0625
  0
LTYPE
  2
VERDECKTX2
 70
     0
  3
Verdeckt (2x) ____ ____ ____ __
 72
    65
 73
     2
 40
0.75
 49
0.5
 49
-0.25
  0
LTYPE
  2
PHANTOM2
 70
     0
  3
Phantom (.5x) ___ _ _ ___ _ _ _
 72
    65
 73
     6
 40
1.25
 49
0.6250000000000001
 49
-0.125
 49
0.125
 49
-0.125
 49
0.125
 49
-0.125
  0
LTYPE
  2
PHANTOMX2
 70
     0
  3
Phantom (2x) ____________    __
 72
    65
 73
     6
 40
5.0
 49
2.5
 49
-0.5
 49
0.5
 49
-0.5
 49
0.5
 49
-0.5
  0
LTYPE
  2
PUNKTE
 70
     0
  3
Punkte - - - - - - - - - - - - 
 72
    65
 73
     2
 40
0.1
 49
0.05
 49
-0.05
  0
LTYPE
  2
ACAD_ISO02W100
 70
     0
  3
__ __ __ __ __ __ __ __ __ __ _
 72
    65
 73
     2
 40
15.0
 49
12.0
 49
-3.0
  0
LTYPE
  2
ACAD_ISO03W100
 70
     0
  3
__    __    __    __    __    _
 72
    65
 73
     2
 40
30.0
 49
12.0
 49
-18.0
  0
LTYPE
  2
ACAD_ISO04W100
 70
     0
  3
____ . ____ . ____ . ____ . ___
 72
    65
 73
     4
 40
30.5
 49
24.0
 49
-3.0
 49
0.5
 49
-3.0
  0
LTYPE
  2
ACAD_ISO05W100
 70
     0
  3
____ .. ____ .. ____ .. ____ ..
 72
    65
 73
     6
 40
34.0
 49
24.0
 49
-3.0
 49
0.5
 49
-3.0
 49
0.5
 49
-3.0
  0
LTYPE
  2
ACAD_ISO06W100
 70
     0
  3
____ ... ____ ... ____ ... ____
 72
    65
 73
     6
 40
34.0
 49
24.0
 49
-3.0
 49
0.5
 49
-3.0
 49
0.5
 49
-3.0
  0
LTYPE
  2
ACAD_ISO07W100
 70
     0
  3
. . . . . . . . . . . . . . . .
 72
    65
 73
     2
 40
3.5
 49
0.5
 49
-3.0
  0
LTYPE
  2
ACAD_ISO08W100
 70
     0
  3
____ __ ____ __ ____ __ ____ __
 72
    65
 73
     4
 40
36.0
 49
24.0
 49
-3.0
 49
6.0
 49
-3.0
  0
LTYPE
  2
ACAD_ISO09W100
 70
     0
  3
____ __ __ ____ __ __ ____ __ _
 72
    65
 73
     6
 40
45.0
 49
24.0
 49
-3.0
 49
6.0
 49
-3.0
 49
6.0
 49
-3.0
  0
LTYPE
  2
ACAD_ISO10W100
 70
     0
  3
__ . __ . __ . __ . __ . __ . _
 72
    65
 73
     4
 40
18.5
 49
12.0
 49
-3.0
 49
0.5
 49
-3.0
  0
LTYPE
  2
ACAD_ISO11W100
 70
     0
  3
__ __ . __ __ . __ __ . __ __ .
 72
    65
 73
     6
 40
33.5
 49
12.0
 49
-3.0
 49
12.0
 49
-3.0
 49
0.5
 49
-3.0
  0
LTYPE
  2
ACAD_ISO12W100
 70
     0
  3
__ . . __ . . __ . . __ . . __ 
 72
    65
 73
     6
 40
22.0
 49
12.0
 49
-3.0
 49
0.5
 49
-3.0
 49
0.5
 49
-3.0
  0
LTYPE
  2
ACAD_ISO13W100
 70
     0
  3
__ __ . . __ __ . . __ __ . . _
 72
    65
 73
     6
 40
33.5
 49
12.0
 49
-3.0
 49
12.0
 49
-3.0
 49
0.5
 49
-3.0
  0
LTYPE
  2
ACAD_ISO14W100
 70
     0
  3
__ . . . __ . . . __ . . . __ .
 72
    65
 73
     6
 40
22.0
 49
12.0
 49
-3.0
 49
0.5
 49
-3.0
 49
0.5
 49
-3.0
  0
LTYPE
  2
ACAD_ISO15W100
 70
     0
  3
__ __ . . . __ __ . . . __ __ .
 72
    65
 73
     6
 40
33.5
 49
12.0
 49
-3.0
 49
12.0
 49
-3.0
 49
0.5
 49
-3.0
  0
ENDTAB
  0
TABLE
  2
LAYER
 70
     3
  0
LAYER
  2
0
 70
     0
 62
     7
  6
CONTINUOUS
  0
LAYER
  2
0_1
 70
     0
 62
     7
  6
CONTINUOUS
  0
LAYER
  2
1
 70
     0
 62
     7
  6
CONTINUOUS
  0
ENDTAB
  0
TABLE
  2
STYLE
 70
     5
  0
STYLE
  2
STANDARD
 70
     0
 40
0.0
 41
1.0
 50
0.0
 71
     0
 42
1.095074641008686
  3
txt
  4

  0
STYLE
  2
ITALIC
 70
     0
 40
0.0
 41
1.0
 50
0.0
 71
     0
 42
1.095074641008686
  3
ITALIC
  4

  0
STYLE
  2
SIMPLEX
 70
     0
 40
0.0
 41
1.0
 50
0.0
 71
     0
 42
1.095074641008686
  3
SIMPLEX
  4

  0
STYLE
  2
COMPLEX
 70
     0
 40
0.0
 41
1.0
 50
0.0
 71
     0
 42
1.095074641008686
  3
COMPLEX
  4

  0
STYLE
  2
ARIALB
 70
     0
 40
0.0
 41
1.0
 50
0.0
 71
     0
 42
1.095074641008686
  3
txt
  4

  0
ENDTAB
  0
TABLE
  2
VIEW
 70
     0
  0
ENDTAB
  0
TABLE
  2
UCS
 70
     0
  0
ENDTAB
  0
TABLE
  2
APPID
 70
     1
  0
APPID
  2
ACAD
 70
     0
  0
ENDTAB
  0
TABLE
  2
DIMSTYLE
 70
     1
  0
DIMSTYLE
  2
STANDARD
 70
     0
  3

  4

  5

  6

  7

 40
1.0
 41
0.18
 42
0.0625
 43
0.38
 44
0.18
 45
0.0
 46
0.0
 47
0.0
 48
0.0
140
0.18
141
0.09
142
0.0
143
25.399999999999999
144
1.0
145
0.0
146
1.0
147
0.09
 71
     0
 72
     0
 73
     1
 74
     1
 75
     0
 76
     0
 77
     0
 78
     0
170
     0
171
     2
172
     0
173
     0
174
     0
175
     0
176
     0
177
     0
178
     0
  0
ENDTAB
  0
ENDSEC
  0
SECTION
  2
BLOCKS
  0
BLOCK
  8
0
  2
$MODEL_SPACE
 70
     0
 10
0.0
 20
0.0
 30
0.0
  3
$MODEL_SPACE
  1

  0
ENDBLK
  5
21
  8
0
  0
BLOCK
 67
     1
  8
0
  2
$PAPER_SPACE
 70
     0
 10
0.0
 20
0.0
 30
0.0
  3
$PAPER_SPACE
  1

  0
ENDBLK
  5
1D
 67
     1
  8
0
  0
ENDSEC
  0
SECTION
  2
ENTITIES
  0
POLYLINE
  5
5B
  8
1
  6
CONTINUOUS
 62
     7
 66
     1
 10
0.0
 20
0.0
 30
0.0
 70
     1
  0
VERTEX
  5
A2
  8
1
  6
CONTINUOUS
 62
     7
 10
9.7796877454153517
 20
10.451217713052859
 30
0.0
  0
VERTEX
  5
A3
  8
1
  6
CONTINUOUS
 62
     7
 10
28.124603473570769
 20
10.451217713052859
 30
0.0
  0
VERTEX
  5
A4
  8
1
  6
CONTINUOUS
 62
     7
 10
28.124603473570769
 20
91.474595512405557
 30
0.0
  0
VERTEX
  5
A5
  8
1
  6
CONTINUOUS
 62
     7
 10
9.7796877454153517
 20
91.474595512405557
 30
0.0
  0
SEQEND
  5
A6
  8
1
  6
CONTINUOUS
 62
     7
  0
CIRCLE
  5
5C
  8
1
  6
CONTINUOUS
 62
     7
 10
18.81284781647965
 20
17.560790717526238
 30
0.0
 40
3.545372788562088
  0
CIRCLE
  5
5D
  8
1
  6
CONTINUOUS
 62
     7
 10
18.81284781647965
 20
82.824679606415074
 30
0.0
 40
3.527777777777787
  0
POLYLINE
  5
5E
  8
1
  6
CONTINUOUS
 62
     7
 66
     1
 10
0.0
 20
0.0
 30
0.0
 70
     1
  0
VERTEX
  5
A7
  8
1
  6
CONTINUOUS
 62
     7
 10
9.6406255942574521
 20
27.791346273081778
 30
0.0
  0
VERTEX
  5
A8
  8
1
  6
CONTINUOUS
 62
     7
 10
27.808681149813051
 20
27.791346273081778
 30
0.0
  0
VERTEX
  5
A9
  8
1
  6
CONTINUOUS
 62
     7
 10
27.808681149813051
 20
73.123290717526231
 30
0.0
  0
VERTEX
  5
AA
  8
1
  6
CONTINUOUS
 62
     7
 10
9.6406255942574521
 20
73.123290717526231
 30
0.0
  0
SEQEND
  5
AB
  8
1
  6
CONTINUOUS
 62
     7
  0
POLYLINE
  5
5F
  8
1
  6
CONTINUOUS
 62
     7
 66
     1
 10
0.0
 20
0.0
 30
0.0
 70
     1
  0
VERTEX
  5
AC
  8
1
  6
CONTINUOUS
 62
     7
 10
9.6406255942574521
 20
73.123290717526231
 30
0.0
  0
VERTEX
  5
AD
  8
1
  6
CONTINUOUS
 62
     7
 10
27.80868114981299
 20
73.123290717526231
 30
0.0
  0
VERTEX
  5
AE
  8
1
  6
CONTINUOUS
 62
     7
 10
27.80868114981299
 20
57.24829071752621
 30
0.0
  0
VERTEX
  5
AF
  8
1
  6
CONTINUOUS
 62
     7
 10
9.6406255942574521
 20
57.24829071752621
 30
0.0
  0
SEQEND
  5
B0
  8
1
  6
CONTINUOUS
 62
     7
  0
LINE
  5
60
  8
1
  6
CONTINUOUS
 62
     7
 10
9.6406255942574521
 20
47.899679606415113
 30
0.0
 11
11.58090337203523
 21
47.899679606415113
 31
0.0
  0
LINE
  5
61
  8
1
  6
CONTINUOUS
 62
     7
 10
11.58090337203523
 20
47.899679606415113
 30
0.0
 11
11.58090337203523
 21
29.555235161970689
 31
0.0
  0
LINE
  5
62
  8
1
  6
CONTINUOUS
 62
     7
 10
11.58090337203523
 20
29.731624050859569
 30
0.0
 11
25.69201448314633
 21
29.731624050859569
 31
0.0
  0
LINE
  5
63
  8
1
  6
CONTINUOUS
 62
     7
 10
25.515625594257429
 20
29.731624050859569
 30
0.0
 11
25.515625594257429
 21
47.723290717526247
 31
0.0
  0
LINE
  5
64
  8
1
  6
CONTINUOUS
 62
     7
 10
25.515625594257429
 20
47.723290717526247
 30
0.0
 11
27.985070038701881
 21
47.723290717526247
 31
0.0
  0
POLYLINE
  5
65
  8
1
  6
CONTINUOUS
 62
     7
 66
     1
 10
0.0
 20
0.0
 30
0.0
  0
VERTEX
  5
B1
  8
1
  6
CONTINUOUS
 62
     7
 10
9.8170144831463357
 20
53.191346273081763
 30
0.0
  0
VERTEX
  5
B2
  8
1
  6
CONTINUOUS
 62
     7
 10
27.985070038701881
 20
53.191346273081763
 30
0.0
  0
SEQEND
  5
B3
  8
1
  6
CONTINUOUS
 62
     7
  0
POLYLINE
  5
66
  8
1
  6
CONTINUOUS
 62
     7
 66
     1
 10
0.0
 20
0.0
 30
0.0
 70
     1
  0
VERTEX
  5
B4
  8
1
  6
CONTINUOUS
 62
     7
 10
11.58090337203523
 20
40.491346273081788
 30
0.0
  0
VERTEX
  5
B5
  8
1
  6
CONTINUOUS
 62
     7
 10
25.515625594257429
 20
40.491346273081788
 30
0.0
  0
VERTEX
  5
B6
  8
1
  6
CONTINUOUS
 62
     7
 10
25.515625594257429
 20
40.314957384192887
 30
0.0
  0
VERTEX
  5
B7
  8
1
  6
CONTINUOUS
 62
     7
 10
11.58090337203523
 20
40.314957384192887
 30
0.0
  0
SEQEND
  5
B8
  8
1
  6
CONTINUOUS
 62
     7
  0
POLYLINE
  5
67
  8
1
  6
CONTINUOUS
 62
     7
 66
     1
 10
0.0
 20
0.0
 30
0.0
 70
     1
  0
VERTEX
  5
B9
  8
1
  6
CONTINUOUS
 62
     7
 10
11.58090337203523
 20
36.963568495304017
 30
0.0
  0
VERTEX
  5
BA
  8
1
  6
CONTINUOUS
 62
     7
 10
25.515625594257429
 20
36.963568495304017
 30
0.0
  0
VERTEX
  5
BB
  8
1
  6
CONTINUOUS
 62
     7
 10
25.515625594257429
 20
36.78717960641513
 30
0.0
  0
VERTEX
  5
BC
  8
1
  6
CONTINUOUS
 62
     7
 10
11.58090337203523
 20
36.78717960641513
 30
0.0
  0
SEQEND
  5
BD
  8
1
  6
CONTINUOUS
 62
     7
  0
POLYLINE
  5
68
  8
1
  6
CONTINUOUS
 62
     7
 66
     1
 10
0.0
 20
0.0
 30
0.0
 70
     1
  0
VERTEX
  5
BE
  8
1
  6
CONTINUOUS
 62
     7
 10
14.57951448314631
 20
46.841346273081783
 30
0.0
  0
VERTEX
  5
BF
  8
1
  6
CONTINUOUS
 62
     7
 10
22.51701448314633
 20
46.841346273081783
 30
0.0
  0
VERTEX
  5
C0
  8
1
  6
CONTINUOUS
 62
     7
 10
22.51701448314633
 20
44.01912405085956
 30
0.0
  0
VERTEX
  5
C1
  8
1
  6
CONTINUOUS
 62
     7
 10
14.57951448314631
 20
44.01912405085956
 30
0.0
  0
SEQEND
  5
C2
  8
1
  6
CONTINUOUS
 62
     7
  0
TEXT
  5
6A
  8
1
  6
CONTINUOUS
 62
     7
 10
12.28645892759077
 20
68.184401828637363
 30
0.0
 40
3.0
  1
wöhner
  7
ARIALB
  0
POLYLINE
  5
6B
  8
1
  6
CONTINUOUS
 62
     7
 66
     1
 10
0.0
 20
0.0
 30
0.0
 70
     1
  0
VERTEX
  5
C3
  8
1
  6
CONTINUOUS
 62
     7
 10
28.305193801332241
 20
10.4772333724896
 30
0.0
  0
VERTEX
  5
C4
  8
1
  6
CONTINUOUS
 62
     7
 10
46.650109529487636
 20
10.4772333724896
 30
0.0
  0
VERTEX
  5
C5
  8
1
  6
CONTINUOUS
 62
     7
 10
46.650109529487636
 20
91.500611171842294
 30
0.0
  0
VERTEX
  5
C6
  8
1
  6
CONTINUOUS
 62
     7
 10
28.305193801332241
 20
91.500611171842294
 30
0.0
  0
SEQEND
  5
C7
  8
1
  6
CONTINUOUS
 62
     7
  0
CIRCLE
  5
6C
  8
1
  6
CONTINUOUS
 62
     7
 10
37.338353872396539
 20
17.58680637696299
 30
0.0
 40
3.545372788562088
  0
CIRCLE
  5
6D
  8
1
  6
CONTINUOUS
 62
     7
 10
37.338353872396539
 20
82.85069526585184
 30
0.0
 40
3.527777777777787
  0
POLYLINE
  5
6E
  8
1
  6
CONTINUOUS
 62
     7
 66
     1
 10
0.0
 20
0.0
 30
0.0
 70
     1
  0
VERTEX
  5
C8
  8
1
  6
CONTINUOUS
 62
     7
 10
28.166131650174339
 20
27.817361932518541
 30
0.0
  0
VERTEX
  5
C9
  8
1
  6
CONTINUOUS
 62
     7
 10
46.334187205729933
 20
27.817361932518541
 30
0.0
  0
VERTEX
  5
CA
  8
1
  6
CONTINUOUS
 62
     7
 10
46.334187205729933
 20
73.149306376962969
 30
0.0
  0
VERTEX
  5
CB
  8
1
  6
CONTINUOUS
 62
     7
 10
28.166131650174339
 20
73.149306376962969
 30
0.0
  0
SEQEND
  5
CC
  8
1
  6
CONTINUOUS
 62
     7
  0
POLYLINE
  5
6F
  8
1
  6
CONTINUOUS
 62
     7
 66
     1
 10
0.0
 20
0.0
 30
0.0
 70
     1
  0
VERTEX
  5
CD
  8
1
  6
CONTINUOUS
 62
     7
 10
28.166131650174339
 20
73.149306376962969
 30
0.0
  0
VERTEX
  5
CE
  8
1
  6
CONTINUOUS
 62
     7
 10
46.334187205729847
 20
73.149306376962969
 30
0.0
  0
VERTEX
  5
CF
  8
1
  6
CONTINUOUS
 62
     7
 10
46.334187205729847
 20
57.274306376962947
 30
0.0
  0
VERTEX
  5
D0
  8
1
  6
CONTINUOUS
 62
     7
 10
28.166131650174339
 20
57.274306376962947
 30
0.0
  0
SEQEND
  5
D1
  8
1
  6
CONTINUOUS
 62
     7
  0
LINE
  5
70
  8
1
  6
CONTINUOUS
 62
     7
 10
28.166131650174339
 20
47.925695265851871
 30
0.0
 11
30.106409427952119
 21
47.925695265851871
 31
0.0
  0
LINE
  5
71
  8
1
  6
CONTINUOUS
 62
     7
 10
30.106409427952119
 20
47.925695265851871
 30
0.0
 11
30.106409427952119
 21
29.581250821407419
 31
0.0
  0
LINE
  5
72
  8
1
  6
CONTINUOUS
 62
     7
 10
30.106409427952119
 20
29.757639710296321
 30
0.0
 11
44.217520539063202
 21
29.757639710296321
 31
0.0
  0
LINE
  5
73
  8
1
  6
CONTINUOUS
 62
     7
 10
44.041131650174343
 20
29.757639710296321
 30
0.0
 11
44.041131650174343
 21
47.74930637696297
 31
0.0
  0
LINE
  5
74
  8
1
  6
CONTINUOUS
 62
     7
 10
44.041131650174343
 20
47.74930637696297
 30
0.0
 11
46.510576094618777
 21
47.74930637696297
 31
0.0
  0
POLYLINE
  5
75
  8
1
  6
CONTINUOUS
 62
     7
 66
     1
 10
0.0
 20
0.0
 30
0.0
  0
VERTEX
  5
D2
  8
1
  6
CONTINUOUS
 62
     7
 10
28.342520539063219
 20
53.217361932518507
 30
0.0
  0
VERTEX
  5
D3
  8
1
  6
CONTINUOUS
 62
     7
 10
46.510576094618777
 20
53.217361932518507
 30
0.0
  0
SEQEND
  5
D4
  8
1
  6
CONTINUOUS
 62
     7
  0
POLYLINE
  5
76
  8
1
  6
CONTINUOUS
 62
     7
 66
     1
 10
0.0
 20
0.0
 30
0.0
 70
     1
  0
VERTEX
  5
D5
  8
1
  6
CONTINUOUS
 62
     7
 10
30.106409427952119
 20
40.517361932518533
 30
0.0
  0
VERTEX
  5
D6
  8
1
  6
CONTINUOUS
 62
     7
 10
44.041131650174343
 20
40.517361932518533
 30
0.0
  0
VERTEX
  5
D7
  8
1
  6
CONTINUOUS
 62
     7
 10
44.041131650174343
 20
40.340973043629639
 30
0.0
  0
VERTEX
  5
D8
  8
1
  6
CONTINUOUS
 62
     7
 10
30.106409427952119
 20
40.340973043629639
 30
0.0
  0
SEQEND
  5
D9
  8
1
  6
CONTINUOUS
 62
     7
  0
POLYLINE
  5
77
  8
1
  6
CONTINUOUS
 62
     7
 66
     1
 10
0.0
 20
0.0
 30
0.0
 70
     1
  0
VERTEX
  5
DA
  8
1
  6
CONTINUOUS
 62
     7
 10
30.106409427952119
 20
36.989584154740761
 30
0.0
  0
VERTEX
  5
DB
  8
1
  6
CONTINUOUS
 62
     7
 10
44.041131650174343
 20
36.989584154740761
 30
0.0
  0
VERTEX
  5
DC
  8
1
  6
CONTINUOUS
 62
     7
 10
44.041131650174343
 20
36.813195265851881
 30
0.0
  0
VERTEX
  5
DD
  8
1
  6
CONTINUOUS
 62
     7
 10
30.106409427952119
 20
36.813195265851881
 30
0.0
  0
SEQEND
  5
DE
  8
1
  6
CONTINUOUS
 62
     7
  0
POLYLINE
  5
78
  8
1
  6
CONTINUOUS
 62
     7
 66
     1
 10
0.0
 20
0.0
 30
0.0
 70
     1
  0
VERTEX
  5
DF
  8
1
  6
CONTINUOUS
 62
     7
 10
33.105020539063197
 20
46.867361932518541
 30
0.0
  0
VERTEX
  5
E0
  8
1
  6
CONTINUOUS
 62
     7
 10
41.042520539063197
 20
46.867361932518541
 30
0.0
  0
VERTEX
  5
E1
  8
1
  6
CONTINUOUS
 62
     7
 10
41.042520539063197
 20
44.04513971029629
 30
0.0
  0
VERTEX
  5
E2
  8
1
  6
CONTINUOUS
 62
     7
 10
33.105020539063197
 20
44.04513971029629
 30
0.0
  0
SEQEND
  5
E3
  8
1
  6
CONTINUOUS
 62
     7
  0
LINE
  5
79
  8
1
  6
CONTINUOUS
 62
     7
 10
30.811964983507661
 20
10.178473043629641
 30
0.0
 11
30.811964983507661
 21
5.5923619325185516
 31
0.0
  0
LINE
  5
7A
  8
1
  6
CONTINUOUS
 62
     7
 10
30.811964983507661
 20
5.5923619325185516
 30
0.0
 11
44.39390942795211
 21
5.5923619325185516
 31
0.0
  0
LINE
  5
7B
  8
1
  6
CONTINUOUS
 62
     7
 10
44.39390942795211
 20
5.5923619325185516
 30
0.0
 11
44.39390942795211
 21
10.178473043629641
 31
0.0
  0
LINE
  5
7C
  8
1
  6
CONTINUOUS
 62
     7
 10
32.752242761285437
 20
10.35486193251853
 30
0.0
 11
32.752242761285437
 21
7.5326397102963281
 31
0.0
  0
LINE
  5
7D
  8
1
  6
CONTINUOUS
 62
     7
 10
32.752242761285437
 20
7.5326397102963281
 30
0.0
 11
42.630020539063203
 21
7.5326397102963281
 31
0.0
  0
LINE
  5
7E
  8
1
  6
CONTINUOUS
 62
     7
 10
42.630020539063203
 20
7.5326397102963281
 30
0.0
 11
42.630020539063203
 21
10.531250821407429
 31
0.0
  0
POLYLINE
  5
7F
  8
1
  6
CONTINUOUS
 62
     7
 66
     1
 10
0.0
 20
0.0
 30
0.0
 70
     1
  0
VERTEX
  5
E4
  8
1
  6
CONTINUOUS
 62
     7
 10
65.040373314623181
 20
10.35556457452005
 30
0.0
  0
VERTEX
  5
E5
  8
1
  6
CONTINUOUS
 62
     7
 10
83.385289042778609
 20
10.35556457452005
 30
0.0
  0
VERTEX
  5
E6
  8
1
  6
CONTINUOUS
 62
     7
 10
83.385289042778609
 20
91.378942373872746
 30
0.0
  0
VERTEX
  5
E7
  8
1
  6
CONTINUOUS
 62
     7
 10
65.040373314623181
 20
91.378942373872746
 30
0.0
  0
SEQEND
  5
E8
  8
1
  6
CONTINUOUS
 62
     7
  0
CIRCLE
  5
80
  8
1
  6
CONTINUOUS
 62
     7
 10
74.073533385687497
 20
17.46513757899341
 30
0.0
 40
3.545372788562088
  0
CIRCLE
  5
81
  8
1
  6
CONTINUOUS
 62
     7
 10
74.073533385687497
 20
82.729026467882264
 30
0.0
 40
3.527777777777787
  0
POLYLINE
  5
82
  8
1
  6
CONTINUOUS
 62
     7
 66
     1
 10
0.0
 20
0.0
 30
0.0
 70
     1
  0
VERTEX
  5
E9
  8
1
  6
CONTINUOUS
 62
     7
 10
64.901311163465266
 20
27.695693134548961
 30
0.0
  0
VERTEX
  5
EA
  8
1
  6
CONTINUOUS
 62
     7
 10
83.069366719020863
 20
27.695693134548961
 30
0.0
  0
VERTEX
  5
EB
  8
1
  6
CONTINUOUS
 62
     7
 10
83.069366719020863
 20
73.027637578993435
 30
0.0
  0
VERTEX
  5
EC
  8
1
  6
CONTINUOUS
 62
     7
 10
64.901311163465266
 20
73.027637578993435
 30
0.0
  0
SEQEND
  5
ED
  8
1
  6
CONTINUOUS
 62
     7
  0
POLYLINE
  5
83
  8
1
  6
CONTINUOUS
 62
     7
 66
     1
 10
0.0
 20
0.0
 30
0.0
 70
     1
  0
VERTEX
  5
EE
  8
1
  6
CONTINUOUS
 62
     7
 10
64.901311163465266
 20
73.027637578993435
 30
0.0
  0
VERTEX
  5
EF
  8
1
  6
CONTINUOUS
 62
     7
 10
83.069366719020806
 20
73.027637578993435
 30
0.0
  0
VERTEX
  5
F0
  8
1
  6
CONTINUOUS
 62
     7
 10
83.069366719020806
 20
57.152637578993392
 30
0.0
  0
VERTEX
  5
F1
  8
1
  6
CONTINUOUS
 62
     7
 10
64.901311163465266
 20
57.152637578993392
 30
0.0
  0
SEQEND
  5
F2
  8
1
  6
CONTINUOUS
 62
     7
  0
LINE
  5
84
  8
1
  6
CONTINUOUS
 62
     7
 10
64.901311163465266
 20
47.804026467882309
 30
0.0
 11
66.84158894124306
 21
47.804026467882309
 31
0.0
  0
LINE
  5
85
  8
1
  6
CONTINUOUS
 62
     7
 10
66.84158894124306
 20
47.804026467882309
 30
0.0
 11
66.84158894124306
 21
29.459582023437871
 31
0.0
  0
LINE
  5
86
  8
1
  6
CONTINUOUS
 62
     7
 10
66.84158894124306
 20
29.635970912326759
 30
0.0
 11
80.95270005235416
 21
29.635970912326759
 31
0.0
  0
LINE
  5
87
  8
1
  6
CONTINUOUS
 62
     7
 10
80.776311163465266
 20
29.635970912326759
 30
0.0
 11
80.776311163465266
 21
47.627637578993422
 31
0.0
  0
LINE
  5
88
  8
1
  6
CONTINUOUS
 62
     7
 10
80.776311163465266
 20
47.627637578993422
 30
0.0
 11
83.2457556079097
 21
47.627637578993422
 31
0.0
  0
POLYLINE
  5
89
  8
1
  6
CONTINUOUS
 62
     7
 66
     1
 10
0.0
 20
0.0
 30
0.0
  0
VERTEX
  5
F3
  8
1
  6
CONTINUOUS
 62
     7
 10
65.07770005235416
 20
53.095693134548959
 30
0.0
  0
VERTEX
  5
F4
  8
1
  6
CONTINUOUS
 62
     7
 10
83.2457556079097
 20
53.095693134548959
 30
0.0
  0
SEQEND
  5
F5
  8
1
  6
CONTINUOUS
 62
     7
  0
POLYLINE
  5
8A
  8
1
  6
CONTINUOUS
 62
     7
 66
     1
 10
0.0
 20
0.0
 30
0.0
 70
     1
  0
VERTEX
  5
F6
  8
1
  6
CONTINUOUS
 62
     7
 10
66.84158894124306
 20
40.395693134548956
 30
0.0
  0
VERTEX
  5
F7
  8
1
  6
CONTINUOUS
 62
     7
 10
80.776311163465266
 20
40.395693134548956
 30
0.0
  0
VERTEX
  5
F8
  8
1
  6
CONTINUOUS
 62
     7
 10
80.776311163465266
 20
40.219304245660069
 30
0.0
  0
VERTEX
  5
F9
  8
1
  6
CONTINUOUS
 62
     7
 10
66.84158894124306
 20
40.219304245660069
 30
0.0
  0
SEQEND
  5
FA
  8
1
  6
CONTINUOUS
 62
     7
  0
POLYLINE
  5
8B
  8
1
  6
CONTINUOUS
 62
     7
 66
     1
 10
0.0
 20
0.0
 30
0.0
 70
     1
  0
VERTEX
  5
FB
  8
1
  6
CONTINUOUS
 62
     7
 10
66.84158894124306
 20
36.867915356771192
 30
0.0
  0
VERTEX
  5
FC
  8
1
  6
CONTINUOUS
 62
     7
 10
80.776311163465266
 20
36.867915356771192
 30
0.0
  0
VERTEX
  5
FD
  8
1
  6
CONTINUOUS
 62
     7
 10
80.776311163465266
 20
36.691526467882312
 30
0.0
  0
VERTEX
  5
FE
  8
1
  6
CONTINUOUS
 62
     7
 10
66.84158894124306
 20
36.691526467882312
 30
0.0
  0
SEQEND
  5
FF
  8
1
  6
CONTINUOUS
 62
     7
  0
POLYLINE
  5
8C
  8
1
  6
CONTINUOUS
 62
     7
 66
     1
 10
0.0
 20
0.0
 30
0.0
 70
     1
  0
VERTEX
  5
100
  8
1
  6
CONTINUOUS
 62
     7
 10
69.840200052354135
 20
46.745693134548958
 30
0.0
  0
VERTEX
  5
101
  8
1
  6
CONTINUOUS
 62
     7
 10
77.777700052354149
 20
46.745693134548958
 30
0.0
  0
VERTEX
  5
102
  8
1
  6
CONTINUOUS
 62
     7
 10
77.777700052354149
 20
43.923470912326749
 30
0.0
  0
VERTEX
  5
103
  8
1
  6
CONTINUOUS
 62
     7
 10
69.840200052354135
 20
43.923470912326749
 30
0.0
  0
SEQEND
  5
104
  8
1
  6
CONTINUOUS
 62
     7
  0
POLYLINE
  5
8D
  8
1
  6
CONTINUOUS
 62
     7
 66
     1
 10
0.0
 20
0.0
 30
0.0
 70
     1
  0
VERTEX
  5
105
  8
1
  6
CONTINUOUS
 62
     7
 10
46.674371336389058
 20
10.39940251271358
 30
0.0
  0
VERTEX
  5
106
  8
1
  6
CONTINUOUS
 62
     7
 10
65.019287064544486
 20
10.39940251271358
 30
0.0
  0
VERTEX
  5
107
  8
1
  6
CONTINUOUS
 62
     7
 10
65.019287064544486
 20
91.422780312066294
 30
0.0
  0
VERTEX
  5
108
  8
1
  6
CONTINUOUS
 62
     7
 10
46.674371336389058
 20
91.422780312066294
 30
0.0
  0
SEQEND
  5
109
  8
1
  6
CONTINUOUS
 62
     7
  0
CIRCLE
  5
8E
  8
1
  6
CONTINUOUS
 62
     7
 10
55.707531407453381
 20
17.508975517186951
 30
0.0
 40
3.545372788562088
  0
CIRCLE
  5
8F
  8
1
  6
CONTINUOUS
 62
     7
 10
55.707531407453381
 20
82.772864406075797
 30
0.0
 40
3.527777777777787
  0
POLYLINE
  5
90
  8
1
  6
CONTINUOUS
 62
     7
 66
     1
 10
0.0
 20
0.0
 30
0.0
 70
     1
  0
VERTEX
  5
10A
  8
1
  6
CONTINUOUS
 62
     7
 10
46.535309185231192
 20
27.739531072742519
 30
0.0
  0
VERTEX
  5
10B
  8
1
  6
CONTINUOUS
 62
     7
 10
64.703364740786782
 20
27.739531072742519
 30
0.0
  0
VERTEX
  5
10C
  8
1
  6
CONTINUOUS
 62
     7
 10
64.703364740786782
 20
73.071475517186968
 30
0.0
  0
VERTEX
  5
10D
  8
1
  6
CONTINUOUS
 62
     7
 10
46.535309185231192
 20
73.071475517186968
 30
0.0
  0
SEQEND
  5
10E
  8
1
  6
CONTINUOUS
 62
     7
  0
POLYLINE
  5
91
  8
1
  6
CONTINUOUS
 62
     7
 66
     1
 10
0.0
 20
0.0
 30
0.0
 70
     1
  0
VERTEX
  5
10F
  8
1
  6
CONTINUOUS
 62
     7
 10
46.535309185231192
 20
73.071475517186968
 30
0.0
  0
VERTEX
  5
110
  8
1
  6
CONTINUOUS
 62
     7
 10
64.703364740786711
 20
73.071475517186968
 30
0.0
  0
VERTEX
  5
111
  8
1
  6
CONTINUOUS
 62
     7
 10
64.703364740786711
 20
57.196475517186933
 30
0.0
  0
VERTEX
  5
112
  8
1
  6
CONTINUOUS
 62
     7
 10
46.535309185231192
 20
57.196475517186933
 30
0.0
  0
SEQEND
  5
113
  8
1
  6
CONTINUOUS
 62
     7
  0
LINE
  5
92
  8
1
  6
CONTINUOUS
 62
     7
 10
46.535309185231192
 20
47.847864406075843
 30
0.0
 11
48.475586963008972
 21
47.847864406075843
 31
0.0
  0
LINE
  5
93
  8
1
  6
CONTINUOUS
 62
     7
 10
48.475586963008972
 20
47.847864406075843
 30
0.0
 11
48.475586963008972
 21
29.503419961631408
 31
0.0
  0
LINE
  5
94
  8
1
  6
CONTINUOUS
 62
     7
 10
48.475586963008972
 20
29.679808850520299
 30
0.0
 11
62.586698074120072
 21
29.679808850520299
 31
0.0
  0
LINE
  5
95
  8
1
  6
CONTINUOUS
 62
     7
 10
62.410309185231178
 20
29.679808850520299
 30
0.0
 11
62.410309185231178
 21
47.67147551718697
 31
0.0
  0
LINE
  5
96
  8
1
  6
CONTINUOUS
 62
     7
 10
62.410309185231178
 20
47.67147551718697
 30
0.0
 11
64.879753629675619
 21
47.67147551718697
 31
0.0
  0
POLYLINE
  5
97
  8
1
  6
CONTINUOUS
 62
     7
 66
     1
 10
0.0
 20
0.0
 30
0.0
  0
VERTEX
  5
114
  8
1
  6
CONTINUOUS
 62
     7
 10
46.711698074120058
 20
53.139531072742521
 30
0.0
  0
VERTEX
  5
115
  8
1
  6
CONTINUOUS
 62
     7
 10
64.879753629675619
 20
53.139531072742521
 30
0.0
  0
SEQEND
  5
116
  8
1
  6
CONTINUOUS
 62
     7
  0
POLYLINE
  5
98
  8
1
  6
CONTINUOUS
 62
     7
 66
     1
 10
0.0
 20
0.0
 30
0.0
 70
     1
  0
VERTEX
  5
117
  8
1
  6
CONTINUOUS
 62
     7
 10
48.475586963008972
 20
40.439531072742497
 30
0.0
  0
VERTEX
  5
118
  8
1
  6
CONTINUOUS
 62
     7
 10
62.410309185231178
 20
40.439531072742497
 30
0.0
  0
VERTEX
  5
119
  8
1
  6
CONTINUOUS
 62
     7
 10
62.410309185231178
 20
40.26314218385361
 30
0.0
  0
VERTEX
  5
11A
  8
1
  6
CONTINUOUS
 62
     7
 10
48.475586963008972
 20
40.26314218385361
 30
0.0
  0
SEQEND
  5
11B
  8
1
  6
CONTINUOUS
 62
     7
  0
POLYLINE
  5
99
  8
1
  6
CONTINUOUS
 62
     7
 66
     1
 10
0.0
 20
0.0
 30
0.0
 70
     1
  0
VERTEX
  5
11C
  8
1
  6
CONTINUOUS
 62
     7
 10
48.475586963008972
 20
36.911753294964747
 30
0.0
  0
VERTEX
  5
11D
  8
1
  6
CONTINUOUS
 62
     7
 10
62.410309185231178
 20
36.911753294964747
 30
0.0
  0
VERTEX
  5
11E
  8
1
  6
CONTINUOUS
 62
     7
 10
62.410309185231178
 20
36.73536440607586
 30
0.0
  0
VERTEX
  5
11F
  8
1
  6
CONTINUOUS
 62
     7
 10
48.475586963008972
 20
36.73536440607586
 30
0.0
  0
SEQEND
  5
120
  8
1
  6
CONTINUOUS
 62
     7
  0
POLYLINE
  5
9A
  8
1
  6
CONTINUOUS
 62
     7
 66
     1
 10
0.0
 20
0.0
 30
0.0
 70
     1
  0
VERTEX
  5
121
  8
1
  6
CONTINUOUS
 62
     7
 10
51.474198074120061
 20
46.78953107274252
 30
0.0
  0
VERTEX
  5
122
  8
1
  6
CONTINUOUS
 62
     7
 10
59.411698074120061
 20
46.78953107274252
 30
0.0
  0
VERTEX
  5
123
  8
1
  6
CONTINUOUS
 62
     7
 10
59.411698074120061
 20
43.967308850520283
 30
0.0
  0
VERTEX
  5
124
  8
1
  6
CONTINUOUS
 62
     7
 10
51.474198074120061
 20
43.967308850520283
 30
0.0
  0
SEQEND
  5
125
  8
1
  6
CONTINUOUS
 62
     7
  0
TEXT
  5
9B
  8
0_1
 10
72.111698074120099
 20
67.902180290491344
 30
0.0
 40
3.0
  1
N
  7
ARIALB
  0
ENDSEC
  0
EOF
