  0
SECTION
  2
HEADER
  9
$ACADVER
  1
AC1009
  9
$INSBASE
 10
0.0
 20
0.0
 30
0.0
  9
$EXTMIN
 10
-0.4397357768181925
 20
0.1605471882904792
 30
-0.00000001
  9
$EXTMAX
 10
106.18734755651499
 20
90.060054226077014
 30
0.00000001
  9
$LIMMIN
 10
-0.1013433435805109
 20
-1.425183906428555
  9
$LIMMAX
 10
4.2646351459307814
 20
4.7484680140993332
  9
$ORTHOMODE
 70
     0
  9
$REGENMODE
 70
     1
  9
$FILLMODE
 70
     1
  9
$QTEXTMODE
 70
     0
  9
$MIRRTEXT
 70
     1
  9
$DRAGMODE
 70
     2
  9
$LTSCALE
 40
1.0
  9
$OSMODE
 70
     0
  9
$ATTMODE
 70
     1
  9
$TEXTSIZE
 40
1.583363589211616
  9
$TRACEWID
 40
0.05
  9
$TEXTSTYLE
  7
STANDARD
  9
$CLAYER
  8
0
  9
$CELTYPE
  6
BYLAYER
  9
$CECOLOR
 62
   256
  9
$DIMSCALE
 40
1.0
  9
$DIMASZ
 40
0.18
  9
$DIMEXO
 40
0.0625
  9
$DIMDLI
 40
0.38
  9
$DIMRND
 40
0.0
  9
$DIMDLE
 40
0.0
  9
$DIMEXE
 40
0.18
  9
$DIMTP
 40
0.0
  9
$DIMTM
 40
0.0
  9
$DIMTXT
 40
0.0831161989087463
  9
$DIMCEN
 40
0.09
  9
$DIMTSZ
 40
0.0
  9
$DIMTOL
 70
     0
  9
$DIMLIM
 70
     0
  9
$DIMTIH
 70
     1
  9
$DIMTOH
 70
     1
  9
$DIMSE1
 70
     0
  9
$DIMSE2
 70
     0
  9
$DIMTAD
 70
     0
  9
$DIMZIN
 70
     0
  9
$DIMBLK
  1

  9
$DIMASO
 70
     1
  9
$DIMSHO
 70
     1
  9
$DIMPOST
  1

  9
$DIMAPOST
  1

  9
$DIMALT
 70
     0
  9
$DIMALTD
 70
     2
  9
$DIMALTF
 40
25.399999999999999
  9
$DIMLFAC
 40
1.0
  9
$DIMTOFL
 70
     0
  9
$DIMTVP
 40
0.0
  9
$DIMTIX
 70
     0
  9
$DIMSOXD
 70
     0
  9
$DIMSAH
 70
     0
  9
$DIMBLK1
  1

  9
$DIMBLK2
  1

  9
$DIMSTYLE
  2
STANDARD
  9
$DIMCLRD
 70
     0
  9
$DIMCLRE
 70
     0
  9
$DIMCLRT
 70
     0
  9
$DIMTFAC
 40
1.0
  9
$DIMGAP
 40
0.09
  9
$LUNITS
 70
     2
  9
$LUPREC
 70
     0
  9
$SKETCHINC
 40
0.1
  9
$FILLETRAD
 40
3225.799999999997
  9
$AUNITS
 70
     0
  9
$AUPREC
 70
     0
  9
$MENU
  1
.
  9
$ELEVATION
 40
0.0
  9
$PELEVATION
 40
0.0
  9
$THICKNESS
 40
0.0
  9
$LIMCHECK
 70
     0
  9
$BLIPMODE
 70
     0
  9
$CHAMFERA
 40
3225.799999999997
  9
$CHAMFERB
 40
3225.799999999997
  9
$SKPOLY
 70
     0
  9
$TDCREATE
 40
2452165.8997366889
  9
$TDUPDATE
 40
2365705.9527421761
  9
$TDINDWG
 40
0.0
  9
$TDUSRTIMER
 40
0.0
  9
$USRTIMER
 70
     1
  9
$ANGBASE
 50
0.0
  9
$ANGDIR
 70
     0
  9
$PDMODE
 70
     0
  9
$PDSIZE
 40
0.0
  9
$PLINEWID
 40
0.0
  9
$COORDS
 70
     0
  9
$SPLFRAME
 70
     0
  9
$SPLINETYPE
 70
     6
  9
$SPLINESEGS
 70
     8
  9
$ATTDIA
 70
     0
  9
$ATTREQ
 70
     1
  9
$HANDLING
 70
 12289
  9
$HANDSEED
  5
C4
  9
$SURFTAB1
 70
     6
  9
$SURFTAB2
 70
     6
  9
$SURFTYPE
 70
     6
  9
$SURFU
 70
     6
  9
$SURFV
 70
     6
  9
$UCSNAME
  2

  9
$UCSORG
 10
0.0
 20
0.0
 30
0.0
  9
$UCSXDIR
 10
1.0
 20
0.0
 30
0.0
  9
$UCSYDIR
 10
0.0
 20
1.0
 30
0.0
  9
$PUCSNAME
  2

  9
$PUCSORG
 10
0.0
 20
0.0
 30
0.0
  9
$PUCSXDIR
 10
1.0
 20
0.0
 30
0.0
  9
$PUCSYDIR
 10
0.0
 20
1.0
 30
0.0
  9
$USERI1
 70
     0
  9
$USERI2
 70
     0
  9
$USERI3
 70
     0
  9
$USERI4
 70
     0
  9
$USERI5
 70
     0
  9
$USERR1
 40
0.0
  9
$USERR2
 40
0.0
  9
$USERR3
 40
0.0
  9
$USERR4
 40
0.0
  9
$USERR5
 40
0.0
  9
$WORLDVIEW
 70
     1
  9
$SHADEDGE
 70
     3
  9
$SHADEDIF
 70
    70
  9
$TILEMODE
 70
     1
  9
$MAXACTVP
 70
    64
  9
$PLIMCHECK
 70
     0
  9
$PEXTMIN
 10
1.0000000000000000E+020
 20
1.0000000000000000E+020
 30
1.0000000000000000E+020
  9
$PEXTMAX
 10
-1.0000000000000000E+020
 20
-1.0000000000000000E+020
 30
-1.0000000000000000E+020
  9
$PLIMMIN
 10
0.0
 20
0.0
  9
$PLIMMAX
 10
12.0
 20
9.0
  9
$UNITMODE
 70
     0
  9
$VISRETAIN
 70
     1
  9
$PLINEGEN
 70
     0
  9
$PSLTSCALE
 70
     1
  0
ENDSEC
  0
SECTION
  2
TABLES
  0
TABLE
  2
VPORT
 70
     1
  0
VPORT
  2
*ACTIVE
 70
     0
 10
0.0
 20
0.0
 11
1.0
 21
1.0
 12
52.653938001439357
 22
43.604843206609949
 13
0.0
 23
0.0
 14
1.0
 24
1.0
 15
0.0
 25
0.0
 16
0.0
 26
0.0
 36
1.0
 17
0.0
 27
0.0
 37
0.0
 40
90.060054226077014
 41
1.179072658450258
 42
50.0
 43
0.0
 44
0.0
 50
0.0
 51
0.0
 71
     0
 72
   100
 73
     1
 74
     1
 75
     0
 76
     0
 77
     0
 78
     0
  0
ENDTAB
  0
TABLE
  2
LTYPE
 70
    47
  0
LTYPE
  2
CONTINUOUS
 70
     0
  3
Solid line
 72
    65
 73
     0
 40
0.0
  0
LTYPE
  2
HIDDEN
 70
     0
  3
_ _ _ _ _ _ _ _ _ _ _ _ _ _ 
 72
    65
 73
     2
 40
9.5249999999999986
 49
6.3499999999999988
 49
-3.1749999999999989
  0
LTYPE
  2
DASHED
 70
     0
  3
__ __ __ __ __ __ __ __ __ 
 72
    65
 73
     2
 40
19.04999999999999
 49
12.699999999999999
 49
-6.3499999999999988
  0
LTYPE
  2
CENTER
 70
     0
  3
____ _ ____ _ ____ _ ____ _ 
 72
    65
 73
     4
 40
50.799999999999997
 49
31.75
 49
-6.3499999999999988
 49
6.3499999999999988
 49
-6.3499999999999988
  0
LTYPE
  2
PHANTOM
 70
     0
  3
_____ _ _ _____ _ _ _____ _ _ 
 72
    65
 73
     6
 40
63.500000000000007
 49
31.75
 49
-6.3499999999999988
 49
6.3499999999999988
 49
-6.3499999999999988
 49
6.3499999999999988
 49
-6.3499999999999988
  0
LTYPE
  2
DOT
 70
     0
  3
...........................
 72
    65
 73
     2
 40
6.3499999999999988
 49
0.0
 49
-6.3499999999999988
  0
LTYPE
  2
DASHDOT
 70
     0
  3
__ . __ . __ . __ . __ . __ . 
 72
    65
 73
     4
 40
25.399999999999999
 49
12.699999999999999
 49
-6.3499999999999988
 49
0.0
 49
-6.3499999999999988
  0
LTYPE
  2
DIVIDE
 70
     0
  3
__ . . __ . . __ . . __ . . 
 72
    65
 73
     6
 40
31.75
 49
12.699999999999999
 49
-6.3499999999999988
 49
0.0
 49
-6.3499999999999988
 49
0.0
 49
-6.3499999999999988
  0
LTYPE
  2
BORDER
 70
     0
  3
__ __ . __ __ . __ __ . __ __ .
 72
    65
 73
     6
 40
44.449999999999989
 49
12.699999999999999
 49
-6.3499999999999988
 49
12.699999999999999
 49
-6.3499999999999988
 49
0.0
 49
-6.3499999999999988
  0
LTYPE
  2
RAND
 70
     0
  3
Rand __ __ . __ __ . __ __ . __
 72
    65
 73
     6
 40
1.75
 49
0.5
 49
-0.25
 49
0.5
 49
-0.25
 49
0.0
 49
-0.25
  0
LTYPE
  2
RAND2
 70
     0
  3
Rand (.5x) __.__.__.__.__.__.__
 72
    65
 73
     6
 40
0.875
 49
0.25
 49
-0.125
 49
0.25
 49
-0.125
 49
0.0
 49
-0.125
  0
LTYPE
  2
RANDX2
 70
     0
  3
Rand (2x) ____  ____  .  ____  
 72
    65
 73
     6
 40
3.5
 49
1.0
 49
-0.5
 49
1.0
 49
-0.5
 49
0.0
 49
-0.5
  0
LTYPE
  2
MITTE
 70
     0
  3
Mitte ____ _ ____ _ ____ _ ____
 72
    65
 73
     4
 40
2.0
 49
1.25
 49
-0.25
 49
0.25
 49
-0.25
  0
LTYPE
  2
MITTE2
 70
     0
  3
Mitte (.5x) ___ _ ___ _ ___ _ _
 72
    65
 73
     4
 40
1.125
 49
0.7500000000000001
 49
-0.125
 49
0.125
 49
-0.125
  0
LTYPE
  2
MITTEX2
 70
     0
  3
Mitte (2x) ________  __  ______
 72
    65
 73
     4
 40
4.0
 49
2.5
 49
-0.5
 49
0.5
 49
-0.5
  0
LTYPE
  2
STRICHPUNKT
 70
     0
  3
Strichpunkt __ . __ . __ . __ .
 72
    65
 73
     4
 40
1.0
 49
0.5
 49
-0.25
 49
0.0
 49
-0.25
  0
LTYPE
  2
STRICHPUNKT2
 70
     0
  3
Strichpunkt (.5x) _._._._._._._
 72
    65
 73
     4
 40
0.5
 49
0.25
 49
-0.125
 49
0.0
 49
-0.125
  0
LTYPE
  2
STRICHPUNKTX2
 70
     0
  3
Strichpunkt (2x) ____  .  ____ 
 72
    65
 73
     4
 40
2.0
 49
1.0
 49
-0.5
 49
0.0
 49
-0.5
  0
LTYPE
  2
STRICHLINIE
 70
     0
  3
Strichlinie __ __ __ __ __ __ _
 72
    65
 73
     2
 40
0.75
 49
0.5
 49
-0.25
  0
LTYPE
  2
STRICHLINIE2
 70
     0
  3
Strichlinie (.5x) _ _ _ _ _ _ _
 72
    65
 73
     2
 40
0.375
 49
0.25
 49
-0.125
  0
LTYPE
  2
STRICHLINIEX2
 70
     0
  3
Strichlinie (2x) ____  ____  __
 72
    65
 73
     2
 40
1.5
 49
1.0
 49
-0.5
  0
LTYPE
  2
GETRENNT
 70
     0
  3
Getrennt ____ . . ____ . . ____
 72
    65
 73
     6
 40
1.25
 49
0.5
 49
-0.25
 49
0.0
 49
-0.25
 49
0.0
 49
-0.25
  0
LTYPE
  2
GETRENNT2
 70
     0
  3
Getrennt (.5x) __..__..__..__..
 72
    65
 73
     6
 40
0.625
 49
0.25
 49
-0.125
 49
0.0
 49
-0.125
 49
0.0
 49
-0.125
  0
LTYPE
  2
GETRENNTX2
 70
     0
  3
Getrennt (2x) ________  .  .  _
 72
    65
 73
     6
 40
2.5
 49
1.0
 49
-0.5
 49
0.0
 49
-0.5
 49
0.0
 49
-0.5
  0
LTYPE
  2
PUNKT
 70
     0
  3
Punkt . . . . . . . . . . . . .
 72
    65
 73
     2
 40
0.25
 49
0.0
 49
-0.25
  0
LTYPE
  2
PUNKT2
 70
     0
  3
Punkt (.5x) ...................
 72
    65
 73
     2
 40
0.125
 49
0.0
 49
-0.125
  0
LTYPE
  2
PUNKTX2
 70
     0
  3
Punkt (2x) .  .  .  .  .  .  . 
 72
    65
 73
     2
 40
0.5
 49
0.0
 49
-0.5
  0
LTYPE
  2
VERDECKT
 70
     0
  3
Verdeckt __ __ __ __ __ __ __ _
 72
    65
 73
     2
 40
0.375
 49
0.25
 49
-0.125
  0
LTYPE
  2
VERDECKT2
 70
     0
  3
Verdeckt (.5x) _ _ _ _ _ _ _ _ 
 72
    65
 73
     2
 40
0.1875
 49
0.125
 49
-0.0625
  0
LTYPE
  2
VERDECKTX2
 70
     0
  3
Verdeckt (2x) ____ ____ ____ __
 72
    65
 73
     2
 40
0.75
 49
0.5
 49
-0.25
  0
LTYPE
  2
PHANTOM2
 70
     0
  3
Phantom (.5x) ___ _ _ ___ _ _ _
 72
    65
 73
     6
 40
1.25
 49
0.6250000000000001
 49
-0.125
 49
0.125
 49
-0.125
 49
0.125
 49
-0.125
  0
LTYPE
  2
PHANTOMX2
 70
     0
  3
Phantom (2x) ____________    __
 72
    65
 73
     6
 40
5.0
 49
2.5
 49
-0.5
 49
0.5
 49
-0.5
 49
0.5
 49
-0.5
  0
LTYPE
  2
PUNKTE
 70
     0
  3
Punkte - - - - - - - - - - - - 
 72
    65
 73
     2
 40
0.1
 49
0.05
 49
-0.05
  0
LTYPE
  2
ACAD_ISO02W100
 70
     0
  3
__ __ __ __ __ __ __ __ __ __ _
 72
    65
 73
     2
 40
15.0
 49
12.0
 49
-3.0
  0
LTYPE
  2
ACAD_ISO03W100
 70
     0
  3
__    __    __    __    __    _
 72
    65
 73
     2
 40
30.0
 49
12.0
 49
-18.0
  0
LTYPE
  2
ACAD_ISO04W100
 70
     0
  3
____ . ____ . ____ . ____ . ___
 72
    65
 73
     4
 40
30.5
 49
24.0
 49
-3.0
 49
0.5
 49
-3.0
  0
LTYPE
  2
ACAD_ISO05W100
 70
     0
  3
____ .. ____ .. ____ .. ____ ..
 72
    65
 73
     6
 40
34.0
 49
24.0
 49
-3.0
 49
0.5
 49
-3.0
 49
0.5
 49
-3.0
  0
LTYPE
  2
ACAD_ISO06W100
 70
     0
  3
____ ... ____ ... ____ ... ____
 72
    65
 73
     6
 40
34.0
 49
24.0
 49
-3.0
 49
0.5
 49
-3.0
 49
0.5
 49
-3.0
  0
LTYPE
  2
ACAD_ISO07W100
 70
     0
  3
. . . . . . . . . . . . . . . .
 72
    65
 73
     2
 40
3.5
 49
0.5
 49
-3.0
  0
LTYPE
  2
ACAD_ISO08W100
 70
     0
  3
____ __ ____ __ ____ __ ____ __
 72
    65
 73
     4
 40
36.0
 49
24.0
 49
-3.0
 49
6.0
 49
-3.0
  0
LTYPE
  2
ACAD_ISO09W100
 70
     0
  3
____ __ __ ____ __ __ ____ __ _
 72
    65
 73
     6
 40
45.0
 49
24.0
 49
-3.0
 49
6.0
 49
-3.0
 49
6.0
 49
-3.0
  0
LTYPE
  2
ACAD_ISO10W100
 70
     0
  3
__ . __ . __ . __ . __ . __ . _
 72
    65
 73
     4
 40
18.5
 49
12.0
 49
-3.0
 49
0.5
 49
-3.0
  0
LTYPE
  2
ACAD_ISO11W100
 70
     0
  3
__ __ . __ __ . __ __ . __ __ .
 72
    65
 73
     6
 40
33.5
 49
12.0
 49
-3.0
 49
12.0
 49
-3.0
 49
0.5
 49
-3.0
  0
LTYPE
  2
ACAD_ISO12W100
 70
     0
  3
__ . . __ . . __ . . __ . . __ 
 72
    65
 73
     6
 40
22.0
 49
12.0
 49
-3.0
 49
0.5
 49
-3.0
 49
0.5
 49
-3.0
  0
LTYPE
  2
ACAD_ISO13W100
 70
     0
  3
__ __ . . __ __ . . __ __ . . _
 72
    65
 73
     6
 40
33.5
 49
12.0
 49
-3.0
 49
12.0
 49
-3.0
 49
0.5
 49
-3.0
  0
LTYPE
  2
ACAD_ISO14W100
 70
     0
  3
__ . . . __ . . . __ . . . __ .
 72
    65
 73
     6
 40
22.0
 49
12.0
 49
-3.0
 49
0.5
 49
-3.0
 49
0.5
 49
-3.0
  0
LTYPE
  2
ACAD_ISO15W100
 70
     0
  3
__ __ . . . __ __ . . . __ __ .
 72
    65
 73
     6
 40
33.5
 49
12.0
 49
-3.0
 49
12.0
 49
-3.0
 49
0.5
 49
-3.0
  0
ENDTAB
  0
TABLE
  2
LAYER
 70
     3
  0
LAYER
  2
0
 70
     0
 62
     7
  6
CONTINUOUS
  0
LAYER
  2
0_1
 70
     0
 62
     7
  6
CONTINUOUS
  0
LAYER
  2
1
 70
     0
 62
     7
  6
CONTINUOUS
  0
ENDTAB
  0
TABLE
  2
STYLE
 70
     5
  0
STYLE
  2
STANDARD
 70
     0
 40
0.0
 41
1.0
 50
0.0
 71
     0
 42
1.583363589211616
  3
txt
  4

  0
STYLE
  2
ITALIC
 70
     0
 40
0.0
 41
1.0
 50
0.0
 71
     0
 42
1.583363589211616
  3
ITALIC
  4

  0
STYLE
  2
SIMPLEX
 70
     0
 40
0.0
 41
1.0
 50
0.0
 71
     0
 42
1.583363589211616
  3
SIMPLEX
  4

  0
STYLE
  2
COMPLEX
 70
     0
 40
0.0
 41
1.0
 50
0.0
 71
     0
 42
1.583363589211616
  3
COMPLEX
  4

  0
STYLE
  2
ARIALB
 70
     0
 40
0.0
 41
1.0
 50
0.0
 71
     0
 42
1.583363589211616
  3
txt
  4

  0
ENDTAB
  0
TABLE
  2
VIEW
 70
     0
  0
ENDTAB
  0
TABLE
  2
UCS
 70
     0
  0
ENDTAB
  0
TABLE
  2
APPID
 70
     1
  0
APPID
  2
ACAD
 70
     0
  0
ENDTAB
  0
TABLE
  2
DIMSTYLE
 70
     1
  0
DIMSTYLE
  2
STANDARD
 70
     0
  3

  4

  5

  6

  7

 40
1.0
 41
0.18
 42
0.0625
 43
0.38
 44
0.18
 45
0.0
 46
0.0
 47
0.0
 48
0.0
140
0.18
141
0.09
142
0.0
143
25.399999999999999
144
1.0
145
0.0
146
1.0
147
0.09
 71
     0
 72
     0
 73
     1
 74
     1
 75
     0
 76
     0
 77
     0
 78
     0
170
     0
171
     2
172
     0
173
     0
174
     0
175
     0
176
     0
177
     0
178
     0
  0
ENDTAB
  0
ENDSEC
  0
SECTION
  2
BLOCKS
  0
BLOCK
  8
0
  2
$MODEL_SPACE
 70
     0
 10
0.0
 20
0.0
 30
0.0
  3
$MODEL_SPACE
  1

  0
ENDBLK
  5
21
  8
0
  0
BLOCK
 67
     1
  8
0
  2
$PAPER_SPACE
 70
     0
 10
0.0
 20
0.0
 30
0.0
  3
$PAPER_SPACE
  1

  0
ENDBLK
  5
1D
 67
     1
  8
0
  0
ENDSEC
  0
SECTION
  2
ENTITIES
  0
POLYLINE
  5
5B
  8
1
  6
CONTINUOUS
 62
     7
 66
     1
 10
0.0
 20
0.0
 30
0.0
 70
     1
  0
VERTEX
  5
9C
  8
1
  6
CONTINUOUS
 62
     7
 10
9.4009656209196582
 20
45.87463755941036
 30
0.0
  0
VERTEX
  5
9D
  8
1
  6
CONTINUOUS
 62
     7
 10
17.33846562091966
 20
45.87463755941036
 30
0.0
  0
VERTEX
  5
9E
  8
1
  6
CONTINUOUS
 62
     7
 10
17.33846562091966
 20
43.05241533718813
 30
0.0
  0
VERTEX
  5
9F
  8
1
  6
CONTINUOUS
 62
     7
 10
9.4009656209196582
 20
43.05241533718813
 30
0.0
  0
SEQEND
  5
A0
  8
1
  6
CONTINUOUS
 62
     7
  0
TEXT
  5
5D
  8
1
  6
CONTINUOUS
 62
     7
 10
6.642014483146311
 20
67.919818495304042
 30
0.0
 40
3.0
  1
wöhner
  7
ARIALB
  0
POLYLINE
  5
5E
  8
0_1
 66
     1
 10
0.0
 20
0.0
 30
0.0
 70
     1
  0
VERTEX
  5
A1
  8
0_1
 10
0.4198224401964266
 20
0.3663042260770313
 30
0.0
  0
VERTEX
  5
A2
  8
0_1
 10
26.613572440196521
 20
0.3663042260770313
 30
0.0
  0
VERTEX
  5
A3
  8
0_1
 10
26.613572440196521
 20
90.060054226077014
 30
0.0
  0
VERTEX
  5
A4
  8
0_1
 10
0.4198224401964266
 20
90.060054226077014
 30
0.0
  0
SEQEND
  5
A5
  8
0_1
  0
LINE
  5
5F
  8
0_1
 10
0.1552391068630856
 20
71.803804226077034
 30
0.0
 11
26.613572440196421
 21
71.803804226077034
 31
0.0
  0
LINE
  5
60
  8
0_1
 10
0.4198224401964266
 20
26.29547089274369
 30
0.0
 11
26.613572440196421
 21
26.29547089274369
 31
0.0
  0
LINE
  5
61
  8
0_1
 10
0.4198224401964266
 20
46.668387559410348
 30
0.0
 11
26.878155773529731
 21
46.668387559410348
 31
0.0
  0
LINE
  5
62
  8
0_1
 10
4.2562807735297419
 20
46.756582003854803
 30
0.0
 11
4.2562807735297419
 21
30.881582003854788
 31
0.0
  0
LINE
  5
63
  8
0_1
 10
4.2562807735297419
 20
30.881582003854788
 30
0.0
 11
22.60072521797419
 21
30.881582003854788
 31
0.0
  0
LINE
  5
64
  8
0_1
 10
22.60072521797418
 20
46.756582003854803
 30
0.0
 11
22.60072521797418
 21
30.881582003854788
 31
0.0
  0
LINE
  5
65
  8
0_1
 10
4.1535217939339519
 20
41.464915337188138
 30
0.0
 11
22.497966238378389
 21
41.464915337188138
 31
0.0
  0
LINE
  5
66
  8
0_1
 10
4.1535217939339519
 20
38.642693114965901
 30
0.0
 11
22.497966238378389
 21
38.642693114965901
 31
0.0
  0
CIRCLE
  5
67
  8
0_1
 10
13.17518737119887
 20
7.245470892743695
 30
0.0
 40
3.3560274916471329
  0
CIRCLE
  5
68
  8
0_1
 10
12.99879848230999
 20
83.445470892743685
 30
0.0
 40
3.527777777777787
  0
LINE
  5
69
  8
0_1
 10
0.2987984823099768
 20
55.928804226077013
 30
0.0
 11
26.580742926754422
 21
55.928804226077013
 31
0.0
  0
POLYLINE
  5
6A
  8
1
  6
CONTINUOUS
 62
     7
 66
     1
 10
0.0
 20
0.0
 30
0.0
 70
     1
  0
VERTEX
  5
A6
  8
1
  6
CONTINUOUS
 62
     7
 10
62.328899996366538
 20
45.757074966068238
 30
0.0
  0
VERTEX
  5
A7
  8
1
  6
CONTINUOUS
 62
     7
 10
70.266399996366559
 20
45.757074966068238
 30
0.0
  0
VERTEX
  5
A8
  8
1
  6
CONTINUOUS
 62
     7
 10
70.266399996366559
 20
42.934852743846029
 30
0.0
  0
VERTEX
  5
A9
  8
1
  6
CONTINUOUS
 62
     7
 10
62.328899996366538
 20
42.934852743846029
 30
0.0
  0
SEQEND
  5
AA
  8
1
  6
CONTINUOUS
 62
     7
  0
POLYLINE
  5
6B
  8
0_1
 66
     1
 10
0.0
 20
0.0
 30
0.0
 70
     1
  0
VERTEX
  5
AB
  8
0_1
 10
53.347756815643301
 20
0.2487416327349148
 30
0.0
  0
VERTEX
  5
AC
  8
0_1
 10
79.54150681564343
 20
0.2487416327349148
 30
0.0
  0
VERTEX
  5
AD
  8
0_1
 10
79.54150681564343
 20
89.942491632734914
 30
0.0
  0
VERTEX
  5
AE
  8
0_1
 10
53.347756815643301
 20
89.942491632734914
 30
0.0
  0
SEQEND
  5
AF
  8
0_1
  0
LINE
  5
6C
  8
0_1
 10
53.083173482309959
 20
71.686241632734934
 30
0.0
 11
79.541506815643274
 21
71.686241632734934
 31
0.0
  0
LINE
  5
6D
  8
0_1
 10
53.347756815643301
 20
26.177908299401579
 30
0.0
 11
79.541506815643274
 21
26.177908299401579
 31
0.0
  0
LINE
  5
6E
  8
0_1
 10
53.347756815643301
 20
46.550824966068262
 30
0.0
 11
79.806090148976608
 21
46.550824966068262
 31
0.0
  0
LINE
  5
6F
  8
0_1
 10
57.184215148976627
 20
46.639019410512702
 30
0.0
 11
57.184215148976627
 21
30.764019410512692
 31
0.0
  0
LINE
  5
70
  8
0_1
 10
57.184215148976627
 20
30.764019410512692
 30
0.0
 11
75.528659593421096
 21
30.764019410512692
 31
0.0
  0
LINE
  5
71
  8
0_1
 10
75.528659593421096
 20
46.639019410512702
 30
0.0
 11
75.528659593421096
 21
30.764019410512692
 31
0.0
  0
LINE
  5
72
  8
0_1
 10
57.081456169380829
 20
41.347352743846031
 30
0.0
 11
75.425900613825291
 21
41.347352743846031
 31
0.0
  0
LINE
  5
73
  8
0_1
 10
57.081456169380829
 20
38.525130521623808
 30
0.0
 11
75.425900613825291
 21
38.525130521623808
 31
0.0
  0
CIRCLE
  5
74
  8
0_1
 10
66.103121746645769
 20
7.1279082994015832
 30
0.0
 40
3.3560274916471329
  0
CIRCLE
  5
75
  8
0_1
 10
65.926732857756875
 20
83.327908299401585
 30
0.0
 40
3.527777777777787
  0
LINE
  5
76
  8
0_1
 10
53.226732857756851
 20
55.811241632734912
 30
0.0
 11
79.508677302201306
 21
55.811241632734912
 31
0.0
  0
POLYLINE
  5
77
  8
1
  6
CONTINUOUS
 62
     7
 66
     1
 10
0.0
 20
0.0
 30
0.0
 70
     1
  0
VERTEX
  5
B0
  8
1
  6
CONTINUOUS
 62
     7
 10
35.826469440810968
 20
45.845269410512707
 30
0.0
  0
VERTEX
  5
B1
  8
1
  6
CONTINUOUS
 62
     7
 10
43.763969440810968
 20
45.845269410512707
 30
0.0
  0
VERTEX
  5
B2
  8
1
  6
CONTINUOUS
 62
     7
 10
43.763969440810968
 20
43.023047188290491
 30
0.0
  0
VERTEX
  5
B3
  8
1
  6
CONTINUOUS
 62
     7
 10
35.826469440810968
 20
43.023047188290491
 30
0.0
  0
SEQEND
  5
B4
  8
1
  6
CONTINUOUS
 62
     7
  0
POLYLINE
  5
78
  8
0_1
 66
     1
 10
0.0
 20
0.0
 30
0.0
 70
     1
  0
VERTEX
  5
B5
  8
0_1
 10
26.845326260087742
 20
0.3369360771793617
 30
0.0
  0
VERTEX
  5
B6
  8
0_1
 10
53.039076260087853
 20
0.3369360771793617
 30
0.0
  0
VERTEX
  5
B7
  8
0_1
 10
53.039076260087853
 20
90.030686077179354
 30
0.0
  0
VERTEX
  5
B8
  8
0_1
 10
26.845326260087742
 20
90.030686077179354
 30
0.0
  0
SEQEND
  5
B9
  8
0_1
  0
LINE
  5
79
  8
0_1
 10
26.58074292675439
 20
71.774436077179374
 30
0.0
 11
53.039076260087718
 21
71.774436077179374
 31
0.0
  0
LINE
  5
7A
  8
0_1
 10
26.845326260087742
 20
26.26610274384603
 30
0.0
 11
53.039076260087718
 21
26.26610274384603
 31
0.0
  0
LINE
  5
7B
  8
0_1
 10
26.845326260087742
 20
46.639019410512702
 30
0.0
 11
53.303659593421031
 21
46.639019410512702
 31
0.0
  0
LINE
  5
7C
  8
0_1
 10
30.68178459342105
 20
46.727213854957149
 30
0.0
 11
30.68178459342105
 21
30.852213854957139
 31
0.0
  0
LINE
  5
7D
  8
0_1
 10
30.68178459342105
 20
30.852213854957139
 30
0.0
 11
49.026229037865498
 21
30.852213854957139
 31
0.0
  0
LINE
  5
7E
  8
0_1
 10
49.026229037865498
 20
46.727213854957149
 30
0.0
 11
49.026229037865498
 21
30.852213854957139
 31
0.0
  0
LINE
  5
7F
  8
0_1
 10
30.57902561382528
 20
41.435547188290457
 30
0.0
 11
48.9234700582697
 21
41.435547188290457
 31
0.0
  0
LINE
  5
80
  8
0_1
 10
30.57902561382528
 20
38.613324966068241
 30
0.0
 11
48.9234700582697
 21
38.613324966068241
 31
0.0
  0
CIRCLE
  5
81
  8
0_1
 10
39.600691191090192
 20
7.2161027438460321
 30
0.0
 40
3.3560274916471329
  0
CIRCLE
  5
82
  8
0_1
 10
39.424302302201291
 20
83.416102743846054
 30
0.0
 40
3.527777777777787
  0
LINE
  5
83
  8
0_1
 10
26.724302302201309
 20
55.899436077179338
 30
0.0
 11
53.006246746645729
 21
55.899436077179338
 31
0.0
  0
LINE
  5
84
  8
0_1
 10
26.71303459342105
 20
59.691797188290458
 30
0.0
 11
53.171367926754399
 21
59.691797188290458
 31
0.0
  0
LINE
  5
85
  8
0_1
 10
53.21546514897662
 20
59.603602743845997
 30
0.0
 11
79.673798482309934
 21
59.603602743845997
 31
0.0
  0
POLYLINE
  5
86
  8
1
  6
CONTINUOUS
 62
     7
 66
     1
 10
0.0
 20
0.0
 30
0.0
 70
     1
  0
VERTEX
  5
BA
  8
1
  6
CONTINUOUS
 62
     7
 10
88.710157403905072
 20
45.668880521623819
 30
0.0
  0
VERTEX
  5
BB
  8
1
  6
CONTINUOUS
 62
     7
 10
96.647657403905072
 20
45.668880521623819
 30
0.0
  0
VERTEX
  5
BC
  8
1
  6
CONTINUOUS
 62
     7
 10
96.647657403905072
 20
42.846658299401589
 30
0.0
  0
VERTEX
  5
BD
  8
1
  6
CONTINUOUS
 62
     7
 10
88.710157403905072
 20
42.846658299401589
 30
0.0
  0
SEQEND
  5
BE
  8
1
  6
CONTINUOUS
 62
     7
  0
POLYLINE
  5
87
  8
0_1
 66
     1
 10
0.0
 20
0.0
 30
0.0
 70
     1
  0
VERTEX
  5
BF
  8
0_1
 10
79.729014223181792
 20
0.1605471882904792
 30
0.0
  0
VERTEX
  5
C0
  8
0_1
 10
105.9227642231819
 20
0.1605471882904792
 30
0.0
  0
VERTEX
  5
C1
  8
0_1
 10
105.9227642231819
 20
89.854297188290488
 30
0.0
  0
VERTEX
  5
C2
  8
0_1
 10
79.729014223181792
 20
89.854297188290488
 30
0.0
  0
SEQEND
  5
C3
  8
0_1
  0
LINE
  5
88
  8
0_1
 10
79.464430889848472
 20
71.598047188290479
 30
0.0
 11
105.9227642231818
 21
71.598047188290479
 31
0.0
  0
LINE
  5
89
  8
0_1
 10
79.729014223181792
 20
26.089713854957139
 30
0.0
 11
105.9227642231818
 21
26.089713854957139
 31
0.0
  0
LINE
  5
8A
  8
0_1
 10
79.729014223181792
 20
46.462630521623808
 30
0.0
 11
106.18734755651499
 21
46.462630521623808
 31
0.0
  0
LINE
  5
8B
  8
0_1
 10
83.565472556515104
 20
46.550824966068262
 30
0.0
 11
83.565472556515104
 21
30.675824966068259
 31
0.0
  0
LINE
  5
8C
  8
0_1
 10
83.565472556515104
 20
30.675824966068259
 30
0.0
 11
101.9099170009595
 21
30.675824966068259
 31
0.0
  0
LINE
  5
8D
  8
0_1
 10
101.9099170009595
 20
46.550824966068262
 30
0.0
 11
101.9099170009595
 21
30.675824966068259
 31
0.0
  0
LINE
  5
8E
  8
0_1
 10
83.462713576919342
 20
41.259158299401591
 30
0.0
 11
101.80715802136361
 21
41.259158299401591
 31
0.0
  0
LINE
  5
8F
  8
0_1
 10
83.462713576919342
 20
38.436936077179361
 30
0.0
 11
101.80715802136361
 21
38.436936077179361
 31
0.0
  0
CIRCLE
  5
90
  8
0_1
 10
92.484379154184282
 20
7.0397138549571494
 30
0.0
 40
3.3560274916471329
  0
CIRCLE
  5
91
  8
0_1
 10
92.307990265295402
 20
83.239713854957174
 30
0.0
 40
3.527777777777787
  0
LINE
  5
92
  8
0_1
 10
79.607990265295342
 20
55.723047188290458
 30
0.0
 11
105.88993470973971
 21
55.723047188290458
 31
0.0
  0
LINE
  5
93
  8
0_1
 10
79.640819778737324
 20
59.708538810744152
 30
0.0
 11
106.0991531120705
 21
59.708538810744152
 31
0.0
  0
LINE
  5
94
  8
0_1
 10
26.547764223181801
 20
59.708538810744152
 30
0.0
 11
-0.4397357768181925
 21
59.708538810744152
 31
0.0
  0
TEXT
  5
95
  8
0_1
 10
90.929708667626215
 20
67.646038810744173
 30
0.0
 40
3.0
  1
N
  7
ARIALB
  0
ENDSEC
  0
EOF
