  0
SECTION
  2
HEADER
  9
$ACADVER
  1
AC1009
  9
$INSBASE
 10
0.0
 20
0.0
 30
0.0
  9
$EXTMIN
 10
-0.3437743549747159
 20
0.0159197266300126
 30
-0.00000001
  9
$EXTMAX
 10
143.7233668469724
 20
122.4817932740194
 30
0.00000001
  9
$LIMMIN
 10
-0.1270711797786944
 20
-1.9138407314728809
  9
$LIMMAX
 10
5.7719370259203391
 20
6.4275708045239712
  9
$ORTHOMODE
 70
     0
  9
$REGENMODE
 70
     1
  9
$FILLMODE
 70
     1
  9
$QTEXTMODE
 70
     0
  9
$MIRRTEXT
 70
     1
  9
$DRAGMODE
 70
     2
  9
$LTSCALE
 40
1.0
  9
$OSMODE
 70
     0
  9
$ATTMODE
 70
     1
  9
$TEXTSIZE
 40
2.1393313842024702
  9
$TRACEWID
 40
0.05
  9
$TEXTSTYLE
  7
STANDARD
  9
$CLAYER
  8
0
  9
$CELTYPE
  6
BYLAYER
  9
$CECOLOR
 62
   256
  9
$DIMSCALE
 40
1.0
  9
$DIMASZ
 40
0.18
  9
$DIMEXO
 40
0.0625
  9
$DIMDLI
 40
0.38
  9
$DIMRND
 40
0.0
  9
$DIMDLE
 40
0.0
  9
$DIMEXE
 40
0.18
  9
$DIMTP
 40
0.0
  9
$DIMTM
 40
0.0
  9
$DIMTXT
 40
0.1123008600631218
  9
$DIMCEN
 40
0.09
  9
$DIMTSZ
 40
0.0
  9
$DIMTOL
 70
     0
  9
$DIMLIM
 70
     0
  9
$DIMTIH
 70
     1
  9
$DIMTOH
 70
     1
  9
$DIMSE1
 70
     0
  9
$DIMSE2
 70
     0
  9
$DIMTAD
 70
     0
  9
$DIMZIN
 70
     0
  9
$DIMBLK
  1

  9
$DIMASO
 70
     1
  9
$DIMSHO
 70
     1
  9
$DIMPOST
  1

  9
$DIMAPOST
  1

  9
$DIMALT
 70
     0
  9
$DIMALTD
 70
     2
  9
$DIMALTF
 40
25.399999999999999
  9
$DIMLFAC
 40
1.0
  9
$DIMTOFL
 70
     0
  9
$DIMTVP
 40
0.0
  9
$DIMTIX
 70
     0
  9
$DIMSOXD
 70
     0
  9
$DIMSAH
 70
     0
  9
$DIMBLK1
  1

  9
$DIMBLK2
  1

  9
$DIMSTYLE
  2
STANDARD
  9
$DIMCLRD
 70
     0
  9
$DIMCLRE
 70
     0
  9
$DIMCLRT
 70
     0
  9
$DIMTFAC
 40
1.0
  9
$DIMGAP
 40
0.09
  9
$LUNITS
 70
     2
  9
$LUPREC
 70
     0
  9
$SKETCHINC
 40
0.1
  9
$FILLETRAD
 40
52861391.05119995
  9
$AUNITS
 70
     0
  9
$AUPREC
 70
     0
  9
$MENU
  1
.
  9
$ELEVATION
 40
0.0
  9
$PELEVATION
 40
0.0
  9
$THICKNESS
 40
0.0
  9
$LIMCHECK
 70
     0
  9
$BLIPMODE
 70
     0
  9
$CHAMFERA
 40
52861391.05119995
  9
$CHAMFERB
 40
52861391.05119995
  9
$SKPOLY
 70
     0
  9
$TDCREATE
 40
2452165.9005180551
  9
$TDUPDATE
 40
2365705.9527421761
  9
$TDINDWG
 40
0.0000006944
  9
$TDUSRTIMER
 40
0.0000006944
  9
$USRTIMER
 70
     1
  9
$ANGBASE
 50
0.0
  9
$ANGDIR
 70
     0
  9
$PDMODE
 70
     0
  9
$PDSIZE
 40
0.0
  9
$PLINEWID
 40
0.0
  9
$COORDS
 70
     0
  9
$SPLFRAME
 70
     0
  9
$SPLINETYPE
 70
     6
  9
$SPLINESEGS
 70
     8
  9
$ATTDIA
 70
     0
  9
$ATTREQ
 70
     1
  9
$HANDLING
 70
 12289
  9
$HANDSEED
  5
EB
  9
$SURFTAB1
 70
     6
  9
$SURFTAB2
 70
     6
  9
$SURFTYPE
 70
     6
  9
$SURFU
 70
     6
  9
$SURFV
 70
     6
  9
$UCSNAME
  2

  9
$UCSORG
 10
0.0
 20
0.0
 30
0.0
  9
$UCSXDIR
 10
1.0
 20
0.0
 30
0.0
  9
$UCSYDIR
 10
0.0
 20
1.0
 30
0.0
  9
$PUCSNAME
  2

  9
$PUCSORG
 10
0.0
 20
0.0
 30
0.0
  9
$PUCSXDIR
 10
1.0
 20
0.0
 30
0.0
  9
$PUCSYDIR
 10
0.0
 20
1.0
 30
0.0
  9
$USERI1
 70
     0
  9
$USERI2
 70
     0
  9
$USERI3
 70
     0
  9
$USERI4
 70
     0
  9
$USERI5
 70
     0
  9
$USERR1
 40
0.0
  9
$USERR2
 40
0.0
  9
$USERR3
 40
0.0
  9
$USERR4
 40
0.0
  9
$USERR5
 40
0.0
  9
$WORLDVIEW
 70
     1
  9
$SHADEDGE
 70
     3
  9
$SHADEDIF
 70
    70
  9
$TILEMODE
 70
     1
  9
$MAXACTVP
 70
    64
  9
$PLIMCHECK
 70
     0
  9
$PEXTMIN
 10
1.0000000000000000E+020
 20
1.0000000000000000E+020
 30
1.0000000000000000E+020
  9
$PEXTMAX
 10
-1.0000000000000000E+020
 20
-1.0000000000000000E+020
 30
-1.0000000000000000E+020
  9
$PLIMMIN
 10
0.0
 20
0.0
  9
$PLIMMAX
 10
12.0
 20
9.0
  9
$UNITMODE
 70
     0
  9
$VISRETAIN
 70
     1
  9
$PLINEGEN
 70
     0
  9
$PSLTSCALE
 70
     1
  0
ENDSEC
  0
SECTION
  2
TABLES
  0
TABLE
  2
VPORT
 70
     1
  0
VPORT
  2
*ACTIVE
 70
     0
 10
0.0
 20
0.0
 11
1.0
 21
1.0
 12
71.517909068511528
 22
59.327055905536817
 13
0.0
 23
0.0
 14
1.0
 24
1.0
 15
0.0
 25
0.0
 16
0.0
 26
0.0
 36
1.0
 17
0.0
 27
0.0
 37
0.0
 40
122.4817932740194
 41
1.1734263763221591
 42
50.0
 43
0.0
 44
0.0
 50
0.0
 51
0.0
 71
     0
 72
   100
 73
     1
 74
     1
 75
     0
 76
     0
 77
     0
 78
     0
  0
ENDTAB
  0
TABLE
  2
LTYPE
 70
    47
  0
LTYPE
  2
CONTINUOUS
 70
     0
  3
Solid line
 72
    65
 73
     0
 40
0.0
  0
LTYPE
  2
HIDDEN
 70
     0
  3
_ _ _ _ _ _ _ _ _ _ _ _ _ _ 
 72
    65
 73
     2
 40
9.5249999999999986
 49
6.3499999999999988
 49
-3.1749999999999989
  0
LTYPE
  2
DASHED
 70
     0
  3
__ __ __ __ __ __ __ __ __ 
 72
    65
 73
     2
 40
19.04999999999999
 49
12.699999999999999
 49
-6.3499999999999988
  0
LTYPE
  2
CENTER
 70
     0
  3
____ _ ____ _ ____ _ ____ _ 
 72
    65
 73
     4
 40
50.799999999999997
 49
31.75
 49
-6.3499999999999988
 49
6.3499999999999988
 49
-6.3499999999999988
  0
LTYPE
  2
PHANTOM
 70
     0
  3
_____ _ _ _____ _ _ _____ _ _ 
 72
    65
 73
     6
 40
63.500000000000007
 49
31.75
 49
-6.3499999999999988
 49
6.3499999999999988
 49
-6.3499999999999988
 49
6.3499999999999988
 49
-6.3499999999999988
  0
LTYPE
  2
DOT
 70
     0
  3
...........................
 72
    65
 73
     2
 40
6.3499999999999988
 49
0.0
 49
-6.3499999999999988
  0
LTYPE
  2
DASHDOT
 70
     0
  3
__ . __ . __ . __ . __ . __ . 
 72
    65
 73
     4
 40
25.399999999999999
 49
12.699999999999999
 49
-6.3499999999999988
 49
0.0
 49
-6.3499999999999988
  0
LTYPE
  2
DIVIDE
 70
     0
  3
__ . . __ . . __ . . __ . . 
 72
    65
 73
     6
 40
31.75
 49
12.699999999999999
 49
-6.3499999999999988
 49
0.0
 49
-6.3499999999999988
 49
0.0
 49
-6.3499999999999988
  0
LTYPE
  2
BORDER
 70
     0
  3
__ __ . __ __ . __ __ . __ __ .
 72
    65
 73
     6
 40
44.449999999999989
 49
12.699999999999999
 49
-6.3499999999999988
 49
12.699999999999999
 49
-6.3499999999999988
 49
0.0
 49
-6.3499999999999988
  0
LTYPE
  2
RAND
 70
     0
  3
Rand __ __ . __ __ . __ __ . __
 72
    65
 73
     6
 40
1.75
 49
0.5
 49
-0.25
 49
0.5
 49
-0.25
 49
0.0
 49
-0.25
  0
LTYPE
  2
RAND2
 70
     0
  3
Rand (.5x) __.__.__.__.__.__.__
 72
    65
 73
     6
 40
0.875
 49
0.25
 49
-0.125
 49
0.25
 49
-0.125
 49
0.0
 49
-0.125
  0
LTYPE
  2
RANDX2
 70
     0
  3
Rand (2x) ____  ____  .  ____  
 72
    65
 73
     6
 40
3.5
 49
1.0
 49
-0.5
 49
1.0
 49
-0.5
 49
0.0
 49
-0.5
  0
LTYPE
  2
MITTE
 70
     0
  3
Mitte ____ _ ____ _ ____ _ ____
 72
    65
 73
     4
 40
2.0
 49
1.25
 49
-0.25
 49
0.25
 49
-0.25
  0
LTYPE
  2
MITTE2
 70
     0
  3
Mitte (.5x) ___ _ ___ _ ___ _ _
 72
    65
 73
     4
 40
1.125
 49
0.7500000000000001
 49
-0.125
 49
0.125
 49
-0.125
  0
LTYPE
  2
MITTEX2
 70
     0
  3
Mitte (2x) ________  __  ______
 72
    65
 73
     4
 40
4.0
 49
2.5
 49
-0.5
 49
0.5
 49
-0.5
  0
LTYPE
  2
STRICHPUNKT
 70
     0
  3
Strichpunkt __ . __ . __ . __ .
 72
    65
 73
     4
 40
1.0
 49
0.5
 49
-0.25
 49
0.0
 49
-0.25
  0
LTYPE
  2
STRICHPUNKT2
 70
     0
  3
Strichpunkt (.5x) _._._._._._._
 72
    65
 73
     4
 40
0.5
 49
0.25
 49
-0.125
 49
0.0
 49
-0.125
  0
LTYPE
  2
STRICHPUNKTX2
 70
     0
  3
Strichpunkt (2x) ____  .  ____ 
 72
    65
 73
     4
 40
2.0
 49
1.0
 49
-0.5
 49
0.0
 49
-0.5
  0
LTYPE
  2
STRICHLINIE
 70
     0
  3
Strichlinie __ __ __ __ __ __ _
 72
    65
 73
     2
 40
0.75
 49
0.5
 49
-0.25
  0
LTYPE
  2
STRICHLINIE2
 70
     0
  3
Strichlinie (.5x) _ _ _ _ _ _ _
 72
    65
 73
     2
 40
0.375
 49
0.25
 49
-0.125
  0
LTYPE
  2
STRICHLINIEX2
 70
     0
  3
Strichlinie (2x) ____  ____  __
 72
    65
 73
     2
 40
1.5
 49
1.0
 49
-0.5
  0
LTYPE
  2
GETRENNT
 70
     0
  3
Getrennt ____ . . ____ . . ____
 72
    65
 73
     6
 40
1.25
 49
0.5
 49
-0.25
 49
0.0
 49
-0.25
 49
0.0
 49
-0.25
  0
LTYPE
  2
GETRENNT2
 70
     0
  3
Getrennt (.5x) __..__..__..__..
 72
    65
 73
     6
 40
0.625
 49
0.25
 49
-0.125
 49
0.0
 49
-0.125
 49
0.0
 49
-0.125
  0
LTYPE
  2
GETRENNTX2
 70
     0
  3
Getrennt (2x) ________  .  .  _
 72
    65
 73
     6
 40
2.5
 49
1.0
 49
-0.5
 49
0.0
 49
-0.5
 49
0.0
 49
-0.5
  0
LTYPE
  2
PUNKT
 70
     0
  3
Punkt . . . . . . . . . . . . .
 72
    65
 73
     2
 40
0.25
 49
0.0
 49
-0.25
  0
LTYPE
  2
PUNKT2
 70
     0
  3
Punkt (.5x) ...................
 72
    65
 73
     2
 40
0.125
 49
0.0
 49
-0.125
  0
LTYPE
  2
PUNKTX2
 70
     0
  3
Punkt (2x) .  .  .  .  .  .  . 
 72
    65
 73
     2
 40
0.5
 49
0.0
 49
-0.5
  0
LTYPE
  2
VERDECKT
 70
     0
  3
Verdeckt __ __ __ __ __ __ __ _
 72
    65
 73
     2
 40
0.375
 49
0.25
 49
-0.125
  0
LTYPE
  2
VERDECKT2
 70
     0
  3
Verdeckt (.5x) _ _ _ _ _ _ _ _ 
 72
    65
 73
     2
 40
0.1875
 49
0.125
 49
-0.0625
  0
LTYPE
  2
VERDECKTX2
 70
     0
  3
Verdeckt (2x) ____ ____ ____ __
 72
    65
 73
     2
 40
0.75
 49
0.5
 49
-0.25
  0
LTYPE
  2
PHANTOM2
 70
     0
  3
Phantom (.5x) ___ _ _ ___ _ _ _
 72
    65
 73
     6
 40
1.25
 49
0.6250000000000001
 49
-0.125
 49
0.125
 49
-0.125
 49
0.125
 49
-0.125
  0
LTYPE
  2
PHANTOMX2
 70
     0
  3
Phantom (2x) ____________    __
 72
    65
 73
     6
 40
5.0
 49
2.5
 49
-0.5
 49
0.5
 49
-0.5
 49
0.5
 49
-0.5
  0
LTYPE
  2
PUNKTE
 70
     0
  3
Punkte - - - - - - - - - - - - 
 72
    65
 73
     2
 40
0.1
 49
0.05
 49
-0.05
  0
LTYPE
  2
ACAD_ISO02W100
 70
     0
  3
__ __ __ __ __ __ __ __ __ __ _
 72
    65
 73
     2
 40
15.0
 49
12.0
 49
-3.0
  0
LTYPE
  2
ACAD_ISO03W100
 70
     0
  3
__    __    __    __    __    _
 72
    65
 73
     2
 40
30.0
 49
12.0
 49
-18.0
  0
LTYPE
  2
ACAD_ISO04W100
 70
     0
  3
____ . ____ . ____ . ____ . ___
 72
    65
 73
     4
 40
30.5
 49
24.0
 49
-3.0
 49
0.5
 49
-3.0
  0
LTYPE
  2
ACAD_ISO05W100
 70
     0
  3
____ .. ____ .. ____ .. ____ ..
 72
    65
 73
     6
 40
34.0
 49
24.0
 49
-3.0
 49
0.5
 49
-3.0
 49
0.5
 49
-3.0
  0
LTYPE
  2
ACAD_ISO06W100
 70
     0
  3
____ ... ____ ... ____ ... ____
 72
    65
 73
     6
 40
34.0
 49
24.0
 49
-3.0
 49
0.5
 49
-3.0
 49
0.5
 49
-3.0
  0
LTYPE
  2
ACAD_ISO07W100
 70
     0
  3
. . . . . . . . . . . . . . . .
 72
    65
 73
     2
 40
3.5
 49
0.5
 49
-3.0
  0
LTYPE
  2
ACAD_ISO08W100
 70
     0
  3
____ __ ____ __ ____ __ ____ __
 72
    65
 73
     4
 40
36.0
 49
24.0
 49
-3.0
 49
6.0
 49
-3.0
  0
LTYPE
  2
ACAD_ISO09W100
 70
     0
  3
____ __ __ ____ __ __ ____ __ _
 72
    65
 73
     6
 40
45.0
 49
24.0
 49
-3.0
 49
6.0
 49
-3.0
 49
6.0
 49
-3.0
  0
LTYPE
  2
ACAD_ISO10W100
 70
     0
  3
__ . __ . __ . __ . __ . __ . _
 72
    65
 73
     4
 40
18.5
 49
12.0
 49
-3.0
 49
0.5
 49
-3.0
  0
LTYPE
  2
ACAD_ISO11W100
 70
     0
  3
__ __ . __ __ . __ __ . __ __ .
 72
    65
 73
     6
 40
33.5
 49
12.0
 49
-3.0
 49
12.0
 49
-3.0
 49
0.5
 49
-3.0
  0
LTYPE
  2
ACAD_ISO12W100
 70
     0
  3
__ . . __ . . __ . . __ . . __ 
 72
    65
 73
     6
 40
22.0
 49
12.0
 49
-3.0
 49
0.5
 49
-3.0
 49
0.5
 49
-3.0
  0
LTYPE
  2
ACAD_ISO13W100
 70
     0
  3
__ __ . . __ __ . . __ __ . . _
 72
    65
 73
     6
 40
33.5
 49
12.0
 49
-3.0
 49
12.0
 49
-3.0
 49
0.5
 49
-3.0
  0
LTYPE
  2
ACAD_ISO14W100
 70
     0
  3
__ . . . __ . . . __ . . . __ .
 72
    65
 73
     6
 40
22.0
 49
12.0
 49
-3.0
 49
0.5
 49
-3.0
 49
0.5
 49
-3.0
  0
LTYPE
  2
ACAD_ISO15W100
 70
     0
  3
__ __ . . . __ __ . . . __ __ .
 72
    65
 73
     6
 40
33.5
 49
12.0
 49
-3.0
 49
12.0
 49
-3.0
 49
0.5
 49
-3.0
  0
ENDTAB
  0
TABLE
  2
LAYER
 70
     6
  0
LAYER
  2
0
 70
     0
 62
     7
  6
CONTINUOUS
  0
LAYER
  2
0_1
 70
     0
 62
     7
  6
CONTINUOUS
  0
LAYER
  2
0_1_1
 70
     0
 62
     7
  6
CONTINUOUS
  0
LAYER
  2
0_1_1_1
 70
     0
 62
     7
  6
CONTINUOUS
  0
LAYER
  2
0_1_1_1_1
 70
     0
 62
     7
  6
CONTINUOUS
  0
LAYER
  2
1
 70
     0
 62
     7
  6
CONTINUOUS
  0
ENDTAB
  0
TABLE
  2
STYLE
 70
     5
  0
STYLE
  2
STANDARD
 70
     0
 40
0.0
 41
1.0
 50
0.0
 71
     0
 42
2.1393313842024702
  3
txt
  4

  0
STYLE
  2
ITALIC
 70
     0
 40
0.0
 41
1.0
 50
0.0
 71
     0
 42
2.1393313842024702
  3
ITALIC
  4

  0
STYLE
  2
SIMPLEX
 70
     0
 40
0.0
 41
1.0
 50
0.0
 71
     0
 42
2.1393313842024702
  3
SIMPLEX
  4

  0
STYLE
  2
COMPLEX
 70
     0
 40
0.0
 41
1.0
 50
0.0
 71
     0
 42
2.1393313842024702
  3
COMPLEX
  4

  0
STYLE
  2
ARIALB
 70
     0
 40
0.0
 41
1.0
 50
0.0
 71
     0
 42
2.1393313842024702
  3
txt
  4

  0
ENDTAB
  0
TABLE
  2
VIEW
 70
     0
  0
ENDTAB
  0
TABLE
  2
UCS
 70
     0
  0
ENDTAB
  0
TABLE
  2
APPID
 70
     1
  0
APPID
  2
ACAD
 70
     0
  0
ENDTAB
  0
TABLE
  2
DIMSTYLE
 70
     1
  0
DIMSTYLE
  2
STANDARD
 70
     0
  3

  4

  5

  6

  7

 40
1.0
 41
0.18
 42
0.0625
 43
0.38
 44
0.18
 45
0.0
 46
0.0
 47
0.0
 48
0.0
140
0.18
141
0.09
142
0.0
143
25.399999999999999
144
1.0
145
0.0
146
1.0
147
0.09
 71
     0
 72
     0
 73
     1
 74
     1
 75
     0
 76
     0
 77
     0
 78
     0
170
     0
171
     2
172
     0
173
     0
174
     0
175
     0
176
     0
177
     0
178
     0
  0
ENDTAB
  0
ENDSEC
  0
SECTION
  2
BLOCKS
  0
BLOCK
  8
0
  2
$MODEL_SPACE
 70
     0
 10
0.0
 20
0.0
 30
0.0
  3
$MODEL_SPACE
  1

  0
ENDBLK
  5
21
  8
0
  0
BLOCK
 67
     1
  8
0
  2
$PAPER_SPACE
 70
     0
 10
0.0
 20
0.0
 30
0.0
  3
$PAPER_SPACE
  1

  0
ENDBLK
  5
1D
 67
     1
  8
0
  0
ENDSEC
  0
SECTION
  2
ENTITIES
  0
CIRCLE
  5
5E
  8
0_1_1_1_1
 10
17.647892311691951
 20
114.1829077924407
 30
0.0
 40
3.4395833333333359
  0
CIRCLE
  5
5F
  8
0_1_1_1_1
 10
14.64928120058075
 20
7.6407680435147887
 30
0.0
 40
3.4395833333333359
  0
POLYLINE
  5
60
  8
0_1_1_1_1
 66
     1
 10
0.0
 20
0.0
 30
0.0
 70
     1
  0
VERTEX
  5
C3
  8
0_1_1_1_1
 10
-0.1673854660858784
 20
52.610552520685303
 30
0.0
  0
VERTEX
  5
C4
  8
0_1_1_1_1
 10
35.815947867247502
 20
52.610552520685303
 30
0.0
  0
VERTEX
  5
C5
  8
0_1_1_1_1
 10
35.815947867247502
 20
99.177219187351966
 30
0.0
  0
VERTEX
  5
C6
  8
0_1_1_1_1
 10
-0.1673854660858784
 20
99.177219187351966
 30
0.0
  0
SEQEND
  5
C7
  8
0_1_1_1_1
  0
LINE
  5
61
  8
0_1_1_1_1
 10
3.8013645339141102
 20
78.539719187351935
 30
0.0
 11
3.8013645339141102
 21
53.404302520685292
 31
0.0
  0
LINE
  5
62
  8
0_1_1_1_1
 10
3.8013645339141102
 20
53.404302520685292
 30
0.0
 11
31.847197867247441
 21
53.404302520685292
 31
0.0
  0
LINE
  5
63
  8
0_1_1_1_1
 10
31.847197867247441
 20
53.404302520685292
 30
0.0
 11
31.847197867247441
 21
78.539719187351935
 31
0.0
  0
POLYLINE
  5
64
  8
0_1_1_1_1
 66
     1
 10
0.0
 20
0.0
 30
0.0
 70
     1
  0
VERTEX
  5
C8
  8
0_1_1_1_1
 10
13.32636453391409
 20
78.010552520685252
 30
0.0
  0
VERTEX
  5
C9
  8
0_1_1_1_1
 10
22.851364533914101
 20
78.010552520685252
 30
0.0
  0
VERTEX
  5
CA
  8
0_1_1_1_1
 10
22.851364533914101
 20
74.306385854018615
 30
0.0
  0
VERTEX
  5
CB
  8
0_1_1_1_1
 10
13.32636453391409
 20
74.306385854018615
 30
0.0
  0
SEQEND
  5
CC
  8
0_1_1_1_1
  0
LINE
  5
65
  8
0_1_1_1_1
 10
3.8013645339141102
 20
62.664719187351963
 30
0.0
 11
31.847197867247441
 21
62.664719187351963
 31
0.0
  0
LINE
  5
66
  8
0_1_1_1_1
 10
3.8013645339141102
 20
65.575135854018626
 30
0.0
 11
31.847197867247441
 21
65.575135854018626
 31
0.0
  0
TEXT
  5
68
  8
0_1_1_1_1
 10
11.66464786724741
 20
94.924124474855873
 30
0.0
 40
3.0
  1
wöhner
  7
ARIALB
  0
LINE
  5
69
  8
0_1_1_1
 10
-0.0791910216414033
 20
78.549101376848043
 30
0.0
 11
35.727753422803033
 21
78.549101376848043
 31
0.0
  0
LINE
  5
6A
  8
0_1_1_1
 10
-0.2555799105302914
 20
82.253268043514737
 30
0.0
 11
35.727753422803033
 21
82.253268043514737
 31
0.0
  0
LINE
  5
6B
  8
0_1_1
 10
5.2124756450252834
 20
0.2585795182911008
 30
0.0
 11
5.2124756450252834
 21
21.425246184957761
 31
0.0
  0
LINE
  5
6C
  8
0_1_1
 10
5.2124756450252834
 20
21.160662851624419
 30
0.0
 11
-0.3437743549747159
 21
21.160662851624419
 31
0.0
  0
LINE
  5
6D
  8
0_1_1
 10
-0.3437743549747159
 20
21.160662851624419
 30
0.0
 11
-0.0791910216413864
 21
104.09765780573051
 31
0.0
  0
LINE
  5
6E
  8
0_1_1
 10
-0.0791910216413864
 20
104.09765780573051
 30
0.0
 11
7.5937256450252821
 21
104.09765780573051
 31
0.0
  0
LINE
  5
6F
  8
0_1_1
 10
7.3291423116919541
 20
104.09765780573051
 30
0.0
 11
7.3291423116919541
 21
121.8247411390636
 31
0.0
  0
LINE
  5
70
  8
0_1_1
 10
7.3291423116919541
 20
121.5601578057305
 30
0.0
 11
29.02497564502529
 21
121.5601578057305
 31
0.0
  0
LINE
  5
71
  8
0_1_1
 10
28.4958089783586
 20
121.5601578057305
 30
0.0
 11
28.23122564502528
 21
104.09765780573051
 31
0.0
  0
LINE
  5
72
  8
0_1_1
 10
28.23122564502528
 20
104.09765780573051
 30
0.0
 11
35.6395589783586
 21
104.09765780573051
 31
0.0
  0
LINE
  5
73
  8
0_1_1
 10
35.6395589783586
 20
104.09765780573051
 30
0.0
 11
35.374975645025287
 21
21.283074472397178
 31
0.0
  0
LINE
  5
74
  8
0_1_1
 10
35.374975645025287
 20
21.54765780573052
 30
0.0
 11
24.26247564502528
 21
21.54765780573052
 31
0.0
  0
LINE
  5
75
  8
0_1_1
 10
24.79164231169193
 20
21.711753059963321
 30
0.0
 11
24.79164231169193
 21
0.0159197266300126
 31
0.0
  0
LINE
  5
76
  8
0_1_1
 10
24.79164231169193
 20
0.0159197266300126
 30
0.0
 11
5.2124756450252834
 21
0.0159197266300126
 31
0.0
  0
CIRCLE
  5
77
  8
0_1_1_1_1
 10
53.719420089469729
 20
114.3107932607295
 30
0.0
 40
3.4395833333333359
  0
CIRCLE
  5
78
  8
0_1_1_1_1
 10
50.720808978358562
 20
7.7686535118037421
 30
0.0
 40
3.4395833333333359
  0
POLYLINE
  5
79
  8
0_1_1_1_1
 66
     1
 10
0.0
 20
0.0
 30
0.0
 70
     1
  0
VERTEX
  5
CD
  8
0_1_1_1_1
 10
35.904142311691899
 20
52.738437988974241
 30
0.0
  0
VERTEX
  5
CE
  8
0_1_1_1_1
 10
71.887475645025262
 20
52.738437988974241
 30
0.0
  0
VERTEX
  5
CF
  8
0_1_1_1_1
 10
71.887475645025262
 20
99.305104655640903
 30
0.0
  0
VERTEX
  5
D0
  8
0_1_1_1_1
 10
35.904142311691899
 20
99.305104655640903
 30
0.0
  0
SEQEND
  5
D1
  8
0_1_1_1_1
  0
LINE
  5
7A
  8
0_1_1_1_1
 10
39.872892311691899
 20
78.667604655640901
 30
0.0
 11
39.872892311691899
 21
53.53218798897425
 31
0.0
  0
LINE
  5
7B
  8
0_1_1_1_1
 10
39.872892311691899
 20
53.53218798897425
 30
0.0
 11
67.918725645025219
 21
53.53218798897425
 31
0.0
  0
LINE
  5
7C
  8
0_1_1_1_1
 10
67.918725645025219
 20
53.53218798897425
 30
0.0
 11
67.918725645025219
 21
78.667604655640901
 31
0.0
  0
POLYLINE
  5
7D
  8
0_1_1_1_1
 66
     1
 10
0.0
 20
0.0
 30
0.0
 70
     1
  0
VERTEX
  5
D2
  8
0_1_1_1_1
 10
49.397892311691869
 20
78.138437988974204
 30
0.0
  0
VERTEX
  5
D3
  8
0_1_1_1_1
 10
58.922892311691903
 20
78.138437988974204
 30
0.0
  0
VERTEX
  5
D4
  8
0_1_1_1_1
 10
58.922892311691903
 20
74.434271322307538
 30
0.0
  0
VERTEX
  5
D5
  8
0_1_1_1_1
 10
49.397892311691869
 20
74.434271322307538
 30
0.0
  0
SEQEND
  5
D6
  8
0_1_1_1_1
  0
LINE
  5
7E
  8
0_1_1_1_1
 10
39.872892311691899
 20
62.792604655640922
 30
0.0
 11
67.918725645025219
 21
62.792604655640922
 31
0.0
  0
LINE
  5
7F
  8
0_1_1_1_1
 10
39.872892311691899
 20
65.703021322307549
 30
0.0
 11
67.918725645025219
 21
65.703021322307549
 31
0.0
  0
LINE
  5
80
  8
0_1_1_1
 10
35.992336756136368
 20
78.67698684513698
 30
0.0
 11
71.799281200580822
 21
78.67698684513698
 31
0.0
  0
LINE
  5
81
  8
0_1_1_1
 10
35.81594786724748
 20
82.381153511803674
 30
0.0
 11
71.799281200580822
 21
82.381153511803674
 31
0.0
  0
LINE
  5
82
  8
0_1_1
 10
41.284003422803067
 20
0.3864649865800552
 30
0.0
 11
41.284003422803067
 21
21.553131653246709
 31
0.0
  0
LINE
  5
83
  8
0_1_1
 10
41.284003422803067
 20
21.288548319913382
 30
0.0
 11
35.727753422803062
 21
21.288548319913382
 31
0.0
  0
LINE
  5
84
  8
0_1_1
 10
35.727753422803062
 20
21.288548319913382
 30
0.0
 11
35.992336756136389
 21
104.2255432740194
 31
0.0
  0
LINE
  5
85
  8
0_1_1
 10
35.992336756136389
 20
104.2255432740194
 30
0.0
 11
43.665253422803062
 21
104.2255432740194
 31
0.0
  0
LINE
  5
86
  8
0_1_1
 10
43.400670089469727
 20
104.2255432740194
 30
0.0
 11
43.400670089469727
 21
121.9526266073526
 31
0.0
  0
LINE
  5
87
  8
0_1_1
 10
43.400670089469727
 20
121.68804327401929
 30
0.0
 11
65.096503422803082
 21
121.68804327401929
 31
0.0
  0
LINE
  5
88
  8
0_1_1
 10
64.56733675613637
 20
121.68804327401929
 30
0.0
 11
64.30275342280305
 21
104.2255432740194
 31
0.0
  0
LINE
  5
89
  8
0_1_1
 10
64.30275342280305
 20
104.2255432740194
 30
0.0
 11
71.711086756136382
 21
104.2255432740194
 31
0.0
  0
LINE
  5
8A
  8
0_1_1
 10
71.711086756136382
 20
104.2255432740194
 30
0.0
 11
71.446503422803062
 21
21.410959940686119
 31
0.0
  0
LINE
  5
8B
  8
0_1_1
 10
71.446503422803062
 20
21.675543274019471
 30
0.0
 11
60.33400342280305
 21
21.675543274019471
 31
0.0
  0
LINE
  5
8C
  8
0_1_1
 10
60.863170089469719
 20
21.83963852825228
 30
0.0
 11
60.863170089469719
 21
0.1438051949189669
 31
0.0
  0
LINE
  5
8D
  8
0_1_1
 10
60.863170089469719
 20
0.1438051949189669
 30
0.0
 11
41.284003422803067
 21
0.1438051949189669
 31
0.0
  0
CIRCLE
  5
8E
  8
0_1_1_1_1
 10
89.702753422803085
 20
114.3107932607295
 30
0.0
 40
3.4395833333333359
  0
CIRCLE
  5
8F
  8
0_1_1_1_1
 10
86.704142311691896
 20
7.7686535118037421
 30
0.0
 40
3.4395833333333359
  0
LINE
  5
90
  8
0_1_1_1_1
 10
75.856225645025205
 20
78.667604655640901
 30
0.0
 11
75.856225645025205
 21
53.53218798897425
 31
0.0
  0
LINE
  5
91
  8
0_1_1_1_1
 10
75.856225645025205
 20
53.53218798897425
 30
0.0
 11
103.9020589783584
 21
53.53218798897425
 31
0.0
  0
LINE
  5
92
  8
0_1_1_1_1
 10
103.9020589783584
 20
53.53218798897425
 30
0.0
 11
103.9020589783584
 21
78.667604655640901
 31
0.0
  0
POLYLINE
  5
93
  8
0_1_1_1_1
 66
     1
 10
0.0
 20
0.0
 30
0.0
 70
     1
  0
VERTEX
  5
D7
  8
0_1_1_1_1
 10
85.381225645025197
 20
78.138437988974204
 30
0.0
  0
VERTEX
  5
D8
  8
0_1_1_1_1
 10
94.906225645025216
 20
78.138437988974204
 30
0.0
  0
VERTEX
  5
D9
  8
0_1_1_1_1
 10
94.906225645025216
 20
74.434271322307538
 30
0.0
  0
VERTEX
  5
DA
  8
0_1_1_1_1
 10
85.381225645025197
 20
74.434271322307538
 30
0.0
  0
SEQEND
  5
DB
  8
0_1_1_1_1
  0
LINE
  5
94
  8
0_1_1_1_1
 10
75.856225645025205
 20
62.792604655640922
 30
0.0
 11
103.9020589783584
 21
62.792604655640922
 31
0.0
  0
LINE
  5
95
  8
0_1_1_1_1
 10
75.856225645025205
 20
65.703021322307549
 30
0.0
 11
103.9020589783584
 21
65.703021322307549
 31
0.0
  0
LINE
  5
96
  8
0_1_1_1
 10
71.975670089469716
 20
78.67698684513698
 30
0.0
 11
107.782614533914
 21
78.67698684513698
 31
0.0
  0
LINE
  5
97
  8
0_1_1_1
 10
71.799281200580822
 20
82.381153511803674
 30
0.0
 11
107.782614533914
 21
82.381153511803674
 31
0.0
  0
LINE
  5
98
  8
0_1_1
 10
77.267336756136402
 20
0.3864649865800552
 30
0.0
 11
77.267336756136402
 21
21.553131653246709
 31
0.0
  0
LINE
  5
99
  8
0_1_1
 10
77.267336756136402
 20
21.288548319913382
 30
0.0
 11
71.71108675613641
 21
21.288548319913382
 31
0.0
  0
LINE
  5
9A
  8
0_1_1
 10
71.71108675613641
 20
21.288548319913382
 30
0.0
 11
71.975670089469745
 21
104.2255432740194
 31
0.0
  0
LINE
  5
9B
  8
0_1_1
 10
71.975670089469745
 20
104.2255432740194
 30
0.0
 11
79.64858675613641
 21
104.2255432740194
 31
0.0
  0
LINE
  5
9C
  8
0_1_1
 10
79.384003422803062
 20
104.2255432740194
 30
0.0
 11
79.384003422803062
 21
121.9526266073526
 31
0.0
  0
LINE
  5
9D
  8
0_1_1
 10
79.384003422803062
 20
121.68804327401929
 30
0.0
 11
101.0798367561364
 21
121.68804327401929
 31
0.0
  0
LINE
  5
9E
  8
0_1_1
 10
100.55067008946961
 20
121.68804327401929
 30
0.0
 11
100.2860867561363
 21
104.2255432740194
 31
0.0
  0
LINE
  5
9F
  8
0_1_1
 10
100.2860867561363
 20
104.2255432740194
 30
0.0
 11
107.6944200894697
 21
104.2255432740194
 31
0.0
  0
LINE
  5
A0
  8
0_1_1
 10
107.6944200894697
 20
104.2255432740194
 30
0.0
 11
107.4298367561363
 21
21.410959940686119
 31
0.0
  0
LINE
  5
A1
  8
0_1_1
 10
107.4298367561363
 20
21.675543274019471
 30
0.0
 11
96.317336756136413
 21
21.675543274019471
 31
0.0
  0
LINE
  5
A2
  8
0_1_1
 10
96.846503422803039
 20
21.83963852825228
 30
0.0
 11
96.846503422803039
 21
0.1438051949189669
 31
0.0
  0
LINE
  5
A3
  8
0_1_1
 10
96.846503422803039
 20
0.1438051949189669
 30
0.0
 11
77.267336756136402
 21
0.1438051949189669
 31
0.0
  0
CIRCLE
  5
A4
  8
0_1_1_1_1
 10
125.555311291417
 20
114.83995992739619
 30
0.0
 40
3.4395833333333359
  0
CIRCLE
  5
A5
  8
0_1_1_1_1
 10
122.5567001803058
 20
8.2978201784704222
 30
0.0
 40
3.4395833333333359
  0
POLYLINE
  5
A6
  8
0_1_1_1_1
 66
     1
 10
0.0
 20
0.0
 30
0.0
 70
     1
  0
VERTEX
  5
DC
  8
0_1_1_1_1
 10
107.74003351363901
 20
53.26760465564093
 30
0.0
  0
VERTEX
  5
DD
  8
0_1_1_1_1
 10
143.7233668469724
 20
53.26760465564093
 30
0.0
  0
VERTEX
  5
DE
  8
0_1_1_1_1
 10
143.7233668469724
 20
99.834271322307586
 30
0.0
  0
VERTEX
  5
DF
  8
0_1_1_1_1
 10
107.74003351363901
 20
99.834271322307586
 30
0.0
  0
SEQEND
  5
E0
  8
0_1_1_1_1
  0
LINE
  5
A7
  8
0_1_1_1_1
 10
111.70878351363901
 20
79.196771322307555
 30
0.0
 11
111.70878351363901
 21
54.061354655640919
 31
0.0
  0
LINE
  5
A8
  8
0_1_1_1_1
 10
111.70878351363901
 20
54.061354655640919
 30
0.0
 11
139.7546168469724
 21
54.061354655640919
 31
0.0
  0
LINE
  5
A9
  8
0_1_1_1_1
 10
139.7546168469724
 20
54.061354655640919
 30
0.0
 11
139.7546168469724
 21
79.196771322307555
 31
0.0
  0
POLYLINE
  5
AA
  8
0_1_1_1_1
 66
     1
 10
0.0
 20
0.0
 30
0.0
 70
     1
  0
VERTEX
  5
E1
  8
0_1_1_1_1
 10
121.233783513639
 20
78.667604655640872
 30
0.0
  0
VERTEX
  5
E2
  8
0_1_1_1_1
 10
130.758783513639
 20
78.667604655640872
 30
0.0
  0
VERTEX
  5
E3
  8
0_1_1_1_1
 10
130.758783513639
 20
74.963437988974249
 30
0.0
  0
VERTEX
  5
E4
  8
0_1_1_1_1
 10
121.233783513639
 20
74.963437988974249
 30
0.0
  0
SEQEND
  5
E5
  8
0_1_1_1_1
  0
LINE
  5
AB
  8
0_1_1_1_1
 10
111.70878351363901
 20
63.321771322307598
 30
0.0
 11
139.7546168469724
 21
63.321771322307598
 31
0.0
  0
LINE
  5
AC
  8
0_1_1_1_1
 10
111.70878351363901
 20
66.23218798897426
 30
0.0
 11
139.7546168469724
 21
66.23218798897426
 31
0.0
  0
LINE
  5
AD
  8
0_1_1_1
 10
107.8282279580835
 20
79.206153511803677
 30
0.0
 11
143.6351724025279
 21
79.206153511803677
 31
0.0
  0
LINE
  5
AE
  8
0_1_1_1
 10
107.65183906919459
 20
82.910320178470371
 30
0.0
 11
143.6351724025279
 21
82.910320178470371
 31
0.0
  0
LINE
  5
AF
  8
0_1_1
 10
113.1198946247502
 20
0.9156316532467366
 30
0.0
 11
113.1198946247502
 21
22.082298319913392
 31
0.0
  0
LINE
  5
B0
  8
0_1_1
 10
113.1198946247502
 20
21.81771498658005
 30
0.0
 11
107.5636446247502
 21
21.81771498658005
 31
0.0
  0
LINE
  5
B1
  8
0_1_1
 10
107.5636446247502
 20
21.81771498658005
 30
0.0
 11
107.8282279580835
 21
104.754709940686
 31
0.0
  0
LINE
  5
B2
  8
0_1_1
 10
107.8282279580835
 20
104.754709940686
 30
0.0
 11
115.5011446247502
 21
104.754709940686
 31
0.0
  0
LINE
  5
B3
  8
0_1_1
 10
115.236561291417
 20
104.754709940686
 30
0.0
 11
115.236561291417
 21
122.4817932740194
 31
0.0
  0
LINE
  5
B4
  8
0_1_1
 10
115.236561291417
 20
122.217209940686
 30
0.0
 11
136.9323946247502
 21
122.217209940686
 31
0.0
  0
LINE
  5
B5
  8
0_1_1
 10
136.40322795808351
 20
122.217209940686
 30
0.0
 11
136.13864462475021
 21
104.754709940686
 31
0.0
  0
LINE
  5
B6
  8
0_1_1
 10
136.13864462475021
 20
104.754709940686
 30
0.0
 11
143.54697795808349
 21
104.754709940686
 31
0.0
  0
LINE
  5
B7
  8
0_1_1
 10
143.54697795808349
 20
104.754709940686
 30
0.0
 11
143.28239462475031
 21
21.940126607352799
 31
0.0
  0
LINE
  5
B8
  8
0_1_1
 10
143.28239462475031
 20
22.204709940686151
 30
0.0
 11
132.16989462475021
 21
22.204709940686151
 31
0.0
  0
LINE
  5
B9
  8
0_1_1
 10
132.6990612914168
 20
22.36880519491897
 30
0.0
 11
132.6990612914168
 21
0.6729718615856486
 31
0.0
  0
LINE
  5
BA
  8
0_1_1
 10
132.6990612914168
 20
0.6729718615856486
 30
0.0
 11
113.1198946247502
 21
0.6729718615856486
 31
0.0
  0
POLYLINE
  5
BB
  8
0_1_1_1_1
 66
     1
 10
0.0
 20
0.0
 30
0.0
 70
     1
  0
VERTEX
  5
E6
  8
0_1_1_1_1
 10
71.887475645025219
 20
52.738437988974241
 30
0.0
  0
VERTEX
  5
E7
  8
0_1_1_1_1
 10
107.8708089783585
 20
52.738437988974241
 30
0.0
  0
VERTEX
  5
E8
  8
0_1_1_1_1
 10
107.8708089783585
 20
99.305104655640903
 30
0.0
  0
VERTEX
  5
E9
  8
0_1_1_1_1
 10
71.887475645025219
 20
99.305104655640903
 30
0.0
  0
SEQEND
  5
EA
  8
0_1_1_1_1
  0
TEXT
  5
BC
  8
0_1
 10
124.749663461583
 20
94.406800018587049
 30
0.0
 40
3.0
  1
N
  7
ARIALB
  0
ENDSEC
  0
EOF
