  0
SECTION
  2
HEADER
  9
$ACADVER
  1
AC1009
  9
$INSBASE
 10
0.0
 20
0.0
 30
0.0
  9
$EXTMIN
 10
-0.3437743549747159
 20
0.0159197266300126
 30
-0.00000001
  9
$EXTMAX
 10
106.8124756450251
 20
122.0701315820321
 30
0.00000001
  9
$LIMMIN
 10
-0.0979823617022097
 20
-0.8137980200801596
  9
$LIMMAX
 10
4.2896635148538032
 20
5.3904923715173441
  9
$ORTHOMODE
 70
     0
  9
$REGENMODE
 70
     1
  9
$FILLMODE
 70
     1
  9
$QTEXTMODE
 70
     0
  9
$MIRRTEXT
 70
     1
  9
$DRAGMODE
 70
     2
  9
$LTSCALE
 40
1.0
  9
$OSMODE
 70
     0
  9
$ATTMODE
 70
     1
  9
$TEXTSIZE
 40
5.3040715767634792
  9
$TRACEWID
 40
0.05
  9
$TEXTSTYLE
  7
STANDARD
  9
$CLAYER
  8
0
  9
$CELTYPE
  6
BYLAYER
  9
$CECOLOR
 62
   256
  9
$DIMSCALE
 40
1.0
  9
$DIMASZ
 40
0.18
  9
$DIMEXO
 40
0.0625
  9
$DIMDLI
 40
0.38
  9
$DIMRND
 40
0.0
  9
$DIMDLE
 40
0.0
  9
$DIMEXE
 40
0.18
  9
$DIMTP
 40
0.0
  9
$DIMTM
 40
0.0
  9
$DIMTXT
 40
0.0835286862482438
  9
$DIMCEN
 40
0.09
  9
$DIMTSZ
 40
0.0
  9
$DIMTOL
 70
     0
  9
$DIMLIM
 70
     0
  9
$DIMTIH
 70
     1
  9
$DIMTOH
 70
     1
  9
$DIMSE1
 70
     0
  9
$DIMSE2
 70
     0
  9
$DIMTAD
 70
     0
  9
$DIMZIN
 70
     0
  9
$DIMBLK
  1

  9
$DIMASO
 70
     1
  9
$DIMSHO
 70
     1
  9
$DIMPOST
  1

  9
$DIMAPOST
  1

  9
$DIMALT
 70
     0
  9
$DIMALTD
 70
     2
  9
$DIMALTF
 40
25.399999999999999
  9
$DIMLFAC
 40
1.0
  9
$DIMTOFL
 70
     0
  9
$DIMTVP
 40
0.0
  9
$DIMTIX
 70
     0
  9
$DIMSOXD
 70
     0
  9
$DIMSAH
 70
     0
  9
$DIMBLK1
  1

  9
$DIMBLK2
  1

  9
$DIMSTYLE
  2
STANDARD
  9
$DIMCLRD
 70
     0
  9
$DIMCLRE
 70
     0
  9
$DIMCLRT
 70
     0
  9
$DIMTFAC
 40
1.0
  9
$DIMGAP
 40
0.09
  9
$LUNITS
 70
     2
  9
$LUPREC
 70
     0
  9
$SKETCHINC
 40
0.1
  9
$FILLETRAD
 40
52861391.05119995
  9
$AUNITS
 70
     0
  9
$AUPREC
 70
     0
  9
$MENU
  1
.
  9
$ELEVATION
 40
0.0
  9
$PELEVATION
 40
0.0
  9
$THICKNESS
 40
0.0
  9
$LIMCHECK
 70
     0
  9
$BLIPMODE
 70
     0
  9
$CHAMFERA
 40
52861391.05119995
  9
$CHAMFERB
 40
52861391.05119995
  9
$SKPOLY
 70
     0
  9
$TDCREATE
 40
2452165.9003762729
  9
$TDUPDATE
 40
2365705.9527421761
  9
$TDINDWG
 40
0.0000005787
  9
$TDUSRTIMER
 40
0.0000005787
  9
$USRTIMER
 70
     1
  9
$ANGBASE
 50
0.0
  9
$ANGDIR
 70
     0
  9
$PDMODE
 70
     0
  9
$PDSIZE
 40
0.0
  9
$PLINEWID
 40
0.0
  9
$COORDS
 70
     0
  9
$SPLFRAME
 70
     0
  9
$SPLINETYPE
 70
     6
  9
$SPLINESEGS
 70
     8
  9
$ATTDIA
 70
     0
  9
$ATTREQ
 70
     1
  9
$HANDLING
 70
 12289
  9
$HANDSEED
  5
C9
  9
$SURFTAB1
 70
     6
  9
$SURFTAB2
 70
     6
  9
$SURFTYPE
 70
     6
  9
$SURFU
 70
     6
  9
$SURFV
 70
     6
  9
$UCSNAME
  2

  9
$UCSORG
 10
0.0
 20
0.0
 30
0.0
  9
$UCSXDIR
 10
1.0
 20
0.0
 30
0.0
  9
$UCSYDIR
 10
0.0
 20
1.0
 30
0.0
  9
$PUCSNAME
  2

  9
$PUCSORG
 10
0.0
 20
0.0
 30
0.0
  9
$PUCSXDIR
 10
1.0
 20
0.0
 30
0.0
  9
$PUCSYDIR
 10
0.0
 20
1.0
 30
0.0
  9
$USERI1
 70
     0
  9
$USERI2
 70
     0
  9
$USERI3
 70
     0
  9
$USERI4
 70
     0
  9
$USERI5
 70
     0
  9
$USERR1
 40
0.0
  9
$USERR2
 40
0.0
  9
$USERR3
 40
0.0
  9
$USERR4
 40
0.0
  9
$USERR5
 40
0.0
  9
$WORLDVIEW
 70
     1
  9
$SHADEDGE
 70
     3
  9
$SHADEDIF
 70
    70
  9
$TILEMODE
 70
     1
  9
$MAXACTVP
 70
    64
  9
$PLIMCHECK
 70
     0
  9
$PEXTMIN
 10
1.0000000000000000E+020
 20
1.0000000000000000E+020
 30
1.0000000000000000E+020
  9
$PEXTMAX
 10
-1.0000000000000000E+020
 20
-1.0000000000000000E+020
 30
-1.0000000000000000E+020
  9
$PLIMMIN
 10
0.0
 20
0.0
  9
$PLIMMAX
 10
12.0
 20
9.0
  9
$UNITMODE
 70
     0
  9
$VISRETAIN
 70
     1
  9
$PLINEGEN
 70
     0
  9
$PSLTSCALE
 70
     1
  0
ENDSEC
  0
SECTION
  2
TABLES
  0
TABLE
  2
VPORT
 70
     1
  0
VPORT
  2
*ACTIVE
 70
     0
 10
0.0
 20
0.0
 11
1.0
 21
1.0
 12
53.062463467537881
 22
60.221267770935938
 13
0.0
 23
0.0
 14
1.0
 24
1.0
 15
0.0
 25
0.0
 16
0.0
 26
0.0
 36
1.0
 17
0.0
 27
0.0
 37
0.0
 40
122.0701315820321
 41
0.8750090973175225
 42
50.0
 43
0.0
 44
0.0
 50
0.0
 51
0.0
 71
     0
 72
   100
 73
     1
 74
     1
 75
     0
 76
     0
 77
     0
 78
     0
  0
ENDTAB
  0
TABLE
  2
LTYPE
 70
    47
  0
LTYPE
  2
CONTINUOUS
 70
     0
  3
Solid line
 72
    65
 73
     0
 40
0.0
  0
LTYPE
  2
HIDDEN
 70
     0
  3
_ _ _ _ _ _ _ _ _ _ _ _ _ _ 
 72
    65
 73
     2
 40
9.5249999999999986
 49
6.3499999999999988
 49
-3.1749999999999989
  0
LTYPE
  2
DASHED
 70
     0
  3
__ __ __ __ __ __ __ __ __ 
 72
    65
 73
     2
 40
19.04999999999999
 49
12.699999999999999
 49
-6.3499999999999988
  0
LTYPE
  2
CENTER
 70
     0
  3
____ _ ____ _ ____ _ ____ _ 
 72
    65
 73
     4
 40
50.799999999999997
 49
31.75
 49
-6.3499999999999988
 49
6.3499999999999988
 49
-6.3499999999999988
  0
LTYPE
  2
PHANTOM
 70
     0
  3
_____ _ _ _____ _ _ _____ _ _ 
 72
    65
 73
     6
 40
63.500000000000007
 49
31.75
 49
-6.3499999999999988
 49
6.3499999999999988
 49
-6.3499999999999988
 49
6.3499999999999988
 49
-6.3499999999999988
  0
LTYPE
  2
DOT
 70
     0
  3
...........................
 72
    65
 73
     2
 40
6.3499999999999988
 49
0.0
 49
-6.3499999999999988
  0
LTYPE
  2
DASHDOT
 70
     0
  3
__ . __ . __ . __ . __ . __ . 
 72
    65
 73
     4
 40
25.399999999999999
 49
12.699999999999999
 49
-6.3499999999999988
 49
0.0
 49
-6.3499999999999988
  0
LTYPE
  2
DIVIDE
 70
     0
  3
__ . . __ . . __ . . __ . . 
 72
    65
 73
     6
 40
31.75
 49
12.699999999999999
 49
-6.3499999999999988
 49
0.0
 49
-6.3499999999999988
 49
0.0
 49
-6.3499999999999988
  0
LTYPE
  2
BORDER
 70
     0
  3
__ __ . __ __ . __ __ . __ __ .
 72
    65
 73
     6
 40
44.449999999999989
 49
12.699999999999999
 49
-6.3499999999999988
 49
12.699999999999999
 49
-6.3499999999999988
 49
0.0
 49
-6.3499999999999988
  0
LTYPE
  2
RAND
 70
     0
  3
Rand __ __ . __ __ . __ __ . __
 72
    65
 73
     6
 40
1.75
 49
0.5
 49
-0.25
 49
0.5
 49
-0.25
 49
0.0
 49
-0.25
  0
LTYPE
  2
RAND2
 70
     0
  3
Rand (.5x) __.__.__.__.__.__.__
 72
    65
 73
     6
 40
0.875
 49
0.25
 49
-0.125
 49
0.25
 49
-0.125
 49
0.0
 49
-0.125
  0
LTYPE
  2
RANDX2
 70
     0
  3
Rand (2x) ____  ____  .  ____  
 72
    65
 73
     6
 40
3.5
 49
1.0
 49
-0.5
 49
1.0
 49
-0.5
 49
0.0
 49
-0.5
  0
LTYPE
  2
MITTE
 70
     0
  3
Mitte ____ _ ____ _ ____ _ ____
 72
    65
 73
     4
 40
2.0
 49
1.25
 49
-0.25
 49
0.25
 49
-0.25
  0
LTYPE
  2
MITTE2
 70
     0
  3
Mitte (.5x) ___ _ ___ _ ___ _ _
 72
    65
 73
     4
 40
1.125
 49
0.7500000000000001
 49
-0.125
 49
0.125
 49
-0.125
  0
LTYPE
  2
MITTEX2
 70
     0
  3
Mitte (2x) ________  __  ______
 72
    65
 73
     4
 40
4.0
 49
2.5
 49
-0.5
 49
0.5
 49
-0.5
  0
LTYPE
  2
STRICHPUNKT
 70
     0
  3
Strichpunkt __ . __ . __ . __ .
 72
    65
 73
     4
 40
1.0
 49
0.5
 49
-0.25
 49
0.0
 49
-0.25
  0
LTYPE
  2
STRICHPUNKT2
 70
     0
  3
Strichpunkt (.5x) _._._._._._._
 72
    65
 73
     4
 40
0.5
 49
0.25
 49
-0.125
 49
0.0
 49
-0.125
  0
LTYPE
  2
STRICHPUNKTX2
 70
     0
  3
Strichpunkt (2x) ____  .  ____ 
 72
    65
 73
     4
 40
2.0
 49
1.0
 49
-0.5
 49
0.0
 49
-0.5
  0
LTYPE
  2
STRICHLINIE
 70
     0
  3
Strichlinie __ __ __ __ __ __ _
 72
    65
 73
     2
 40
0.75
 49
0.5
 49
-0.25
  0
LTYPE
  2
STRICHLINIE2
 70
     0
  3
Strichlinie (.5x) _ _ _ _ _ _ _
 72
    65
 73
     2
 40
0.375
 49
0.25
 49
-0.125
  0
LTYPE
  2
STRICHLINIEX2
 70
     0
  3
Strichlinie (2x) ____  ____  __
 72
    65
 73
     2
 40
1.5
 49
1.0
 49
-0.5
  0
LTYPE
  2
GETRENNT
 70
     0
  3
Getrennt ____ . . ____ . . ____
 72
    65
 73
     6
 40
1.25
 49
0.5
 49
-0.25
 49
0.0
 49
-0.25
 49
0.0
 49
-0.25
  0
LTYPE
  2
GETRENNT2
 70
     0
  3
Getrennt (.5x) __..__..__..__..
 72
    65
 73
     6
 40
0.625
 49
0.25
 49
-0.125
 49
0.0
 49
-0.125
 49
0.0
 49
-0.125
  0
LTYPE
  2
GETRENNTX2
 70
     0
  3
Getrennt (2x) ________  .  .  _
 72
    65
 73
     6
 40
2.5
 49
1.0
 49
-0.5
 49
0.0
 49
-0.5
 49
0.0
 49
-0.5
  0
LTYPE
  2
PUNKT
 70
     0
  3
Punkt . . . . . . . . . . . . .
 72
    65
 73
     2
 40
0.25
 49
0.0
 49
-0.25
  0
LTYPE
  2
PUNKT2
 70
     0
  3
Punkt (.5x) ...................
 72
    65
 73
     2
 40
0.125
 49
0.0
 49
-0.125
  0
LTYPE
  2
PUNKTX2
 70
     0
  3
Punkt (2x) .  .  .  .  .  .  . 
 72
    65
 73
     2
 40
0.5
 49
0.0
 49
-0.5
  0
LTYPE
  2
VERDECKT
 70
     0
  3
Verdeckt __ __ __ __ __ __ __ _
 72
    65
 73
     2
 40
0.375
 49
0.25
 49
-0.125
  0
LTYPE
  2
VERDECKT2
 70
     0
  3
Verdeckt (.5x) _ _ _ _ _ _ _ _ 
 72
    65
 73
     2
 40
0.1875
 49
0.125
 49
-0.0625
  0
LTYPE
  2
VERDECKTX2
 70
     0
  3
Verdeckt (2x) ____ ____ ____ __
 72
    65
 73
     2
 40
0.75
 49
0.5
 49
-0.25
  0
LTYPE
  2
PHANTOM2
 70
     0
  3
Phantom (.5x) ___ _ _ ___ _ _ _
 72
    65
 73
     6
 40
1.25
 49
0.6250000000000001
 49
-0.125
 49
0.125
 49
-0.125
 49
0.125
 49
-0.125
  0
LTYPE
  2
PHANTOMX2
 70
     0
  3
Phantom (2x) ____________    __
 72
    65
 73
     6
 40
5.0
 49
2.5
 49
-0.5
 49
0.5
 49
-0.5
 49
0.5
 49
-0.5
  0
LTYPE
  2
PUNKTE
 70
     0
  3
Punkte - - - - - - - - - - - - 
 72
    65
 73
     2
 40
0.1
 49
0.05
 49
-0.05
  0
LTYPE
  2
ACAD_ISO02W100
 70
     0
  3
__ __ __ __ __ __ __ __ __ __ _
 72
    65
 73
     2
 40
15.0
 49
12.0
 49
-3.0
  0
LTYPE
  2
ACAD_ISO03W100
 70
     0
  3
__    __    __    __    __    _
 72
    65
 73
     2
 40
30.0
 49
12.0
 49
-18.0
  0
LTYPE
  2
ACAD_ISO04W100
 70
     0
  3
____ . ____ . ____ . ____ . ___
 72
    65
 73
     4
 40
30.5
 49
24.0
 49
-3.0
 49
0.5
 49
-3.0
  0
LTYPE
  2
ACAD_ISO05W100
 70
     0
  3
____ .. ____ .. ____ .. ____ ..
 72
    65
 73
     6
 40
34.0
 49
24.0
 49
-3.0
 49
0.5
 49
-3.0
 49
0.5
 49
-3.0
  0
LTYPE
  2
ACAD_ISO06W100
 70
     0
  3
____ ... ____ ... ____ ... ____
 72
    65
 73
     6
 40
34.0
 49
24.0
 49
-3.0
 49
0.5
 49
-3.0
 49
0.5
 49
-3.0
  0
LTYPE
  2
ACAD_ISO07W100
 70
     0
  3
. . . . . . . . . . . . . . . .
 72
    65
 73
     2
 40
3.5
 49
0.5
 49
-3.0
  0
LTYPE
  2
ACAD_ISO08W100
 70
     0
  3
____ __ ____ __ ____ __ ____ __
 72
    65
 73
     4
 40
36.0
 49
24.0
 49
-3.0
 49
6.0
 49
-3.0
  0
LTYPE
  2
ACAD_ISO09W100
 70
     0
  3
____ __ __ ____ __ __ ____ __ _
 72
    65
 73
     6
 40
45.0
 49
24.0
 49
-3.0
 49
6.0
 49
-3.0
 49
6.0
 49
-3.0
  0
LTYPE
  2
ACAD_ISO10W100
 70
     0
  3
__ . __ . __ . __ . __ . __ . _
 72
    65
 73
     4
 40
18.5
 49
12.0
 49
-3.0
 49
0.5
 49
-3.0
  0
LTYPE
  2
ACAD_ISO11W100
 70
     0
  3
__ __ . __ __ . __ __ . __ __ .
 72
    65
 73
     6
 40
33.5
 49
12.0
 49
-3.0
 49
12.0
 49
-3.0
 49
0.5
 49
-3.0
  0
LTYPE
  2
ACAD_ISO12W100
 70
     0
  3
__ . . __ . . __ . . __ . . __ 
 72
    65
 73
     6
 40
22.0
 49
12.0
 49
-3.0
 49
0.5
 49
-3.0
 49
0.5
 49
-3.0
  0
LTYPE
  2
ACAD_ISO13W100
 70
     0
  3
__ __ . . __ __ . . __ __ . . _
 72
    65
 73
     6
 40
33.5
 49
12.0
 49
-3.0
 49
12.0
 49
-3.0
 49
0.5
 49
-3.0
  0
LTYPE
  2
ACAD_ISO14W100
 70
     0
  3
__ . . . __ . . . __ . . . __ .
 72
    65
 73
     6
 40
22.0
 49
12.0
 49
-3.0
 49
0.5
 49
-3.0
 49
0.5
 49
-3.0
  0
LTYPE
  2
ACAD_ISO15W100
 70
     0
  3
__ __ . . . __ __ . . . __ __ .
 72
    65
 73
     6
 40
33.5
 49
12.0
 49
-3.0
 49
12.0
 49
-3.0
 49
0.5
 49
-3.0
  0
ENDTAB
  0
TABLE
  2
LAYER
 70
     6
  0
LAYER
  2
0
 70
     0
 62
     7
  6
CONTINUOUS
  0
LAYER
  2
0_1
 70
     0
 62
     7
  6
CONTINUOUS
  0
LAYER
  2
0_1_1
 70
     0
 62
     7
  6
CONTINUOUS
  0
LAYER
  2
0_1_1_1
 70
     0
 62
     7
  6
CONTINUOUS
  0
LAYER
  2
0_1_1_1_1
 70
     0
 62
     7
  6
CONTINUOUS
  0
LAYER
  2
1
 70
     0
 62
     7
  6
CONTINUOUS
  0
ENDTAB
  0
TABLE
  2
STYLE
 70
     5
  0
STYLE
  2
STANDARD
 70
     0
 40
0.0
 41
1.0
 50
0.0
 71
     0
 42
5.3040715767634792
  3
txt
  4

  0
STYLE
  2
ITALIC
 70
     0
 40
0.0
 41
1.0
 50
0.0
 71
     0
 42
5.3040715767634792
  3
ITALIC
  4

  0
STYLE
  2
SIMPLEX
 70
     0
 40
0.0
 41
1.0
 50
0.0
 71
     0
 42
5.3040715767634792
  3
SIMPLEX
  4

  0
STYLE
  2
COMPLEX
 70
     0
 40
0.0
 41
1.0
 50
0.0
 71
     0
 42
5.3040715767634792
  3
COMPLEX
  4

  0
STYLE
  2
ARIALB
 70
     0
 40
0.0
 41
1.0
 50
0.0
 71
     0
 42
5.3040715767634792
  3
txt
  4

  0
ENDTAB
  0
TABLE
  2
VIEW
 70
     0
  0
ENDTAB
  0
TABLE
  2
UCS
 70
     0
  0
ENDTAB
  0
TABLE
  2
APPID
 70
     1
  0
APPID
  2
ACAD
 70
     0
  0
ENDTAB
  0
TABLE
  2
DIMSTYLE
 70
     1
  0
DIMSTYLE
  2
STANDARD
 70
     0
  3

  4

  5

  6

  7

 40
1.0
 41
0.18
 42
0.0625
 43
0.38
 44
0.18
 45
0.0
 46
0.0
 47
0.0
 48
0.0
140
0.18
141
0.09
142
0.0
143
25.399999999999999
144
1.0
145
0.0
146
1.0
147
0.09
 71
     0
 72
     0
 73
     1
 74
     1
 75
     0
 76
     0
 77
     0
 78
     0
170
     0
171
     2
172
     0
173
     0
174
     0
175
     0
176
     0
177
     0
178
     0
  0
ENDTAB
  0
ENDSEC
  0
SECTION
  2
BLOCKS
  0
BLOCK
  8
0
  2
$MODEL_SPACE
 70
     0
 10
0.0
 20
0.0
 30
0.0
  3
$MODEL_SPACE
  1

  0
ENDBLK
  5
21
  8
0
  0
BLOCK
 67
     1
  8
0
  2
$PAPER_SPACE
 70
     0
 10
0.0
 20
0.0
 30
0.0
  3
$PAPER_SPACE
  1

  0
ENDBLK
  5
1D
 67
     1
  8
0
  0
ENDSEC
  0
SECTION
  2
ENTITIES
  0
CIRCLE
  5
5E
  8
0_1_1_1_1
 10
17.647892311691951
 20
114.1829077924407
 30
0.0
 40
3.4395833333333359
  0
CIRCLE
  5
5F
  8
0_1_1_1_1
 10
14.64928120058075
 20
7.6407680435147887
 30
0.0
 40
3.4395833333333359
  0
POLYLINE
  5
60
  8
0_1_1_1_1
 66
     1
 10
0.0
 20
0.0
 30
0.0
 70
     1
  0
VERTEX
  5
AB
  8
0_1_1_1_1
 10
-0.1673854660858784
 20
52.610552520685303
 30
0.0
  0
VERTEX
  5
AC
  8
0_1_1_1_1
 10
35.815947867247502
 20
52.610552520685303
 30
0.0
  0
VERTEX
  5
AD
  8
0_1_1_1_1
 10
35.815947867247502
 20
99.177219187351966
 30
0.0
  0
VERTEX
  5
AE
  8
0_1_1_1_1
 10
-0.1673854660858784
 20
99.177219187351966
 30
0.0
  0
SEQEND
  5
AF
  8
0_1_1_1_1
  0
LINE
  5
61
  8
0_1_1_1_1
 10
3.8013645339141102
 20
78.539719187351935
 30
0.0
 11
3.8013645339141102
 21
53.404302520685292
 31
0.0
  0
LINE
  5
62
  8
0_1_1_1_1
 10
3.8013645339141102
 20
53.404302520685292
 30
0.0
 11
31.847197867247441
 21
53.404302520685292
 31
0.0
  0
LINE
  5
63
  8
0_1_1_1_1
 10
31.847197867247441
 20
53.404302520685292
 30
0.0
 11
31.847197867247441
 21
78.539719187351935
 31
0.0
  0
POLYLINE
  5
64
  8
0_1_1_1_1
 66
     1
 10
0.0
 20
0.0
 30
0.0
 70
     1
  0
VERTEX
  5
B0
  8
0_1_1_1_1
 10
13.32636453391409
 20
78.010552520685252
 30
0.0
  0
VERTEX
  5
B1
  8
0_1_1_1_1
 10
22.851364533914101
 20
78.010552520685252
 30
0.0
  0
VERTEX
  5
B2
  8
0_1_1_1_1
 10
22.851364533914101
 20
74.306385854018615
 30
0.0
  0
VERTEX
  5
B3
  8
0_1_1_1_1
 10
13.32636453391409
 20
74.306385854018615
 30
0.0
  0
SEQEND
  5
B4
  8
0_1_1_1_1
  0
LINE
  5
65
  8
0_1_1_1_1
 10
3.8013645339141102
 20
62.664719187351963
 30
0.0
 11
31.847197867247441
 21
62.664719187351963
 31
0.0
  0
LINE
  5
66
  8
0_1_1_1_1
 10
3.8013645339141102
 20
65.575135854018626
 30
0.0
 11
31.847197867247441
 21
65.575135854018626
 31
0.0
  0
TEXT
  5
68
  8
0_1_1_1_1
 10
11.66464786724741
 20
94.924124474855873
 30
0.0
 40
3.0
  1
wöhner
  7
ARIALB
  0
LINE
  5
69
  8
0_1_1_1
 10
-0.0791910216414033
 20
78.549101376848043
 30
0.0
 11
35.727753422803033
 21
78.549101376848043
 31
0.0
  0
LINE
  5
6A
  8
0_1_1_1
 10
-0.2555799105302914
 20
82.253268043514737
 30
0.0
 11
35.727753422803033
 21
82.253268043514737
 31
0.0
  0
LINE
  5
6B
  8
0_1_1
 10
5.2124756450252834
 20
0.2585795182911008
 30
0.0
 11
5.2124756450252834
 21
21.425246184957761
 31
0.0
  0
LINE
  5
6C
  8
0_1_1
 10
5.2124756450252834
 20
21.160662851624419
 30
0.0
 11
-0.3437743549747159
 21
21.160662851624419
 31
0.0
  0
LINE
  5
6D
  8
0_1_1
 10
-0.3437743549747159
 20
21.160662851624419
 30
0.0
 11
-0.0791910216413864
 21
104.09765780573051
 31
0.0
  0
LINE
  5
6E
  8
0_1_1
 10
-0.0791910216413864
 20
104.09765780573051
 30
0.0
 11
7.5937256450252821
 21
104.09765780573051
 31
0.0
  0
LINE
  5
6F
  8
0_1_1
 10
7.3291423116919541
 20
104.09765780573051
 30
0.0
 11
7.3291423116919541
 21
121.8247411390636
 31
0.0
  0
LINE
  5
70
  8
0_1_1
 10
7.3291423116919541
 20
121.5601578057305
 30
0.0
 11
29.02497564502529
 21
121.5601578057305
 31
0.0
  0
LINE
  5
71
  8
0_1_1
 10
28.4958089783586
 20
121.5601578057305
 30
0.0
 11
28.23122564502528
 21
104.09765780573051
 31
0.0
  0
LINE
  5
72
  8
0_1_1
 10
28.23122564502528
 20
104.09765780573051
 30
0.0
 11
35.6395589783586
 21
104.09765780573051
 31
0.0
  0
LINE
  5
73
  8
0_1_1
 10
35.6395589783586
 20
104.09765780573051
 30
0.0
 11
35.374975645025287
 21
21.283074472397178
 31
0.0
  0
LINE
  5
74
  8
0_1_1
 10
35.374975645025287
 20
21.54765780573052
 30
0.0
 11
24.26247564502528
 21
21.54765780573052
 31
0.0
  0
LINE
  5
75
  8
0_1_1
 10
24.79164231169193
 20
21.711753059963321
 30
0.0
 11
24.79164231169193
 21
0.0159197266300126
 31
0.0
  0
LINE
  5
76
  8
0_1_1
 10
24.79164231169193
 20
0.0159197266300126
 30
0.0
 11
5.2124756450252834
 21
0.0159197266300126
 31
0.0
  0
CIRCLE
  5
77
  8
0_1_1_1_1
 10
53.135841276062237
 20
114.3488440828808
 30
0.0
 40
3.4395833333333359
  0
CIRCLE
  5
78
  8
0_1_1_1_1
 10
50.13723016495107
 20
7.8067043339550963
 30
0.0
 40
3.4395833333333359
  0
POLYLINE
  5
79
  8
0_1_1_1_1
 66
     1
 10
0.0
 20
0.0
 30
0.0
 70
     1
  0
VERTEX
  5
B5
  8
0_1_1_1_1
 10
35.320563498284422
 20
52.776488811125603
 30
0.0
  0
VERTEX
  5
B6
  8
0_1_1_1_1
 10
71.303896831617763
 20
52.776488811125603
 30
0.0
  0
VERTEX
  5
B7
  8
0_1_1_1_1
 10
71.303896831617763
 20
99.343155477792266
 30
0.0
  0
VERTEX
  5
B8
  8
0_1_1_1_1
 10
35.320563498284422
 20
99.343155477792266
 30
0.0
  0
SEQEND
  5
B9
  8
0_1_1_1_1
  0
LINE
  5
7A
  8
0_1_1_1_1
 10
39.2893134982844
 20
78.705655477792234
 30
0.0
 11
39.2893134982844
 21
53.570238811125598
 31
0.0
  0
LINE
  5
7B
  8
0_1_1_1_1
 10
39.2893134982844
 20
53.570238811125598
 30
0.0
 11
67.335146831617749
 21
53.570238811125598
 31
0.0
  0
LINE
  5
7C
  8
0_1_1_1_1
 10
67.335146831617749
 20
53.570238811125598
 30
0.0
 11
67.335146831617749
 21
78.705655477792234
 31
0.0
  0
POLYLINE
  5
7D
  8
0_1_1_1_1
 66
     1
 10
0.0
 20
0.0
 30
0.0
 70
     1
  0
VERTEX
  5
BA
  8
0_1_1_1_1
 10
48.814313498284392
 20
78.176488811125552
 30
0.0
  0
VERTEX
  5
BB
  8
0_1_1_1_1
 10
58.33931349828439
 20
78.176488811125552
 30
0.0
  0
VERTEX
  5
BC
  8
0_1_1_1_1
 10
58.33931349828439
 20
74.4723221444589
 30
0.0
  0
VERTEX
  5
BD
  8
0_1_1_1_1
 10
48.814313498284392
 20
74.4723221444589
 30
0.0
  0
SEQEND
  5
BE
  8
0_1_1_1_1
  0
LINE
  5
7E
  8
0_1_1_1_1
 10
39.2893134982844
 20
62.830655477792249
 30
0.0
 11
67.335146831617749
 21
62.830655477792249
 31
0.0
  0
LINE
  5
7F
  8
0_1_1_1_1
 10
39.2893134982844
 20
65.741072144458926
 30
0.0
 11
67.335146831617749
 21
65.741072144458926
 31
0.0
  0
LINE
  5
80
  8
0_1_1_1
 10
35.408757942728883
 20
78.715037667288328
 30
0.0
 11
71.215702387173309
 21
78.715037667288328
 31
0.0
  0
LINE
  5
81
  8
0_1_1_1
 10
35.23236905384001
 20
82.419204333955037
 30
0.0
 11
71.215702387173309
 21
82.419204333955037
 31
0.0
  0
LINE
  5
82
  8
0_1_1
 10
40.700424609395569
 20
0.4245158087314115
 30
0.0
 11
40.700424609395569
 21
21.59118247539806
 31
0.0
  0
LINE
  5
83
  8
0_1_1
 10
40.700424609395569
 20
21.32659914206473
 30
0.0
 11
35.14417460939557
 21
21.32659914206473
 31
0.0
  0
LINE
  5
84
  8
0_1_1
 10
35.14417460939557
 20
21.32659914206473
 30
0.0
 11
35.408757942728897
 21
104.26359409617061
 31
0.0
  0
LINE
  5
85
  8
0_1_1
 10
35.408757942728897
 20
104.26359409617061
 30
0.0
 11
43.081674609395563
 21
104.26359409617061
 31
0.0
  0
LINE
  5
86
  8
0_1_1
 10
42.817091276062257
 20
104.26359409617061
 30
0.0
 11
42.817091276062257
 21
121.990677429504
 31
0.0
  0
LINE
  5
87
  8
0_1_1
 10
42.817091276062257
 20
121.7260940961707
 30
0.0
 11
64.512924609395583
 21
121.7260940961707
 31
0.0
  0
LINE
  5
88
  8
0_1_1
 10
63.9837579427289
 20
121.7260940961707
 30
0.0
 11
63.719174609395573
 21
104.26359409617061
 31
0.0
  0
LINE
  5
89
  8
0_1_1
 10
63.719174609395573
 20
104.26359409617061
 30
0.0
 11
71.127507942728911
 21
104.26359409617061
 31
0.0
  0
LINE
  5
8A
  8
0_1_1
 10
71.127507942728911
 20
104.26359409617061
 30
0.0
 11
70.862924609395563
 21
21.449010762837489
 31
0.0
  0
LINE
  5
8B
  8
0_1_1
 10
70.862924609395563
 20
21.713594096170819
 30
0.0
 11
59.750424609395573
 21
21.713594096170819
 31
0.0
  0
LINE
  5
8C
  8
0_1_1
 10
60.279591276062241
 20
21.877689350403639
 30
0.0
 11
60.279591276062241
 21
0.1818560170703219
 31
0.0
  0
LINE
  5
8D
  8
0_1_1
 10
60.279591276062241
 20
0.1818560170703219
 30
0.0
 11
40.700424609395569
 21
0.1818560170703219
 31
0.0
  0
CIRCLE
  5
8E
  8
0_1_1_1_1
 10
88.644420089469733
 20
114.428298235409
 30
0.0
 40
3.4395833333333359
  0
CIRCLE
  5
8F
  8
0_1_1_1_1
 10
85.645808978358559
 20
7.8861584864832333
 30
0.0
 40
3.4395833333333359
  0
POLYLINE
  5
90
  8
0_1_1_1_1
 66
     1
 10
0.0
 20
0.0
 30
0.0
 70
     1
  0
VERTEX
  5
BF
  8
0_1_1_1_1
 10
70.829142311691911
 20
52.855942963653739
 30
0.0
  0
VERTEX
  5
C0
  8
0_1_1_1_1
 10
106.8124756450251
 20
52.855942963653739
 30
0.0
  0
VERTEX
  5
C1
  8
0_1_1_1_1
 10
106.8124756450251
 20
99.422609630320395
 30
0.0
  0
VERTEX
  5
C2
  8
0_1_1_1_1
 10
70.829142311691911
 20
99.422609630320395
 30
0.0
  0
SEQEND
  5
C3
  8
0_1_1_1_1
  0
LINE
  5
91
  8
0_1_1_1_1
 10
74.797892311691896
 20
78.785109630320392
 30
0.0
 11
74.797892311691896
 21
53.64969296365372
 31
0.0
  0
LINE
  5
92
  8
0_1_1_1_1
 10
74.797892311691896
 20
53.64969296365372
 30
0.0
 11
102.8437256450251
 21
53.64969296365372
 31
0.0
  0
LINE
  5
93
  8
0_1_1_1_1
 10
102.8437256450251
 20
53.64969296365372
 30
0.0
 11
102.8437256450251
 21
78.785109630320392
 31
0.0
  0
POLYLINE
  5
94
  8
0_1_1_1_1
 66
     1
 10
0.0
 20
0.0
 30
0.0
 70
     1
  0
VERTEX
  5
C4
  8
0_1_1_1_1
 10
84.322892311691874
 20
78.255942963653695
 30
0.0
  0
VERTEX
  5
C5
  8
0_1_1_1_1
 10
93.847892311691908
 20
78.255942963653695
 30
0.0
  0
VERTEX
  5
C6
  8
0_1_1_1_1
 10
93.847892311691908
 20
74.551776296987015
 30
0.0
  0
VERTEX
  5
C7
  8
0_1_1_1_1
 10
84.322892311691874
 20
74.551776296987015
 30
0.0
  0
SEQEND
  5
C8
  8
0_1_1_1_1
  0
LINE
  5
95
  8
0_1_1_1_1
 10
74.797892311691896
 20
62.910109630320392
 30
0.0
 11
102.8437256450251
 21
62.910109630320392
 31
0.0
  0
LINE
  5
96
  8
0_1_1_1_1
 10
74.797892311691896
 20
65.820526296987055
 30
0.0
 11
102.8437256450251
 21
65.820526296987055
 31
0.0
  0
LINE
  5
97
  8
0_1_1_1
 10
70.917336756136379
 20
78.794491819816443
 30
0.0
 11
106.72428120058071
 21
78.794491819816443
 31
0.0
  0
LINE
  5
98
  8
0_1_1_1
 10
70.740947867247485
 20
82.498658486483166
 30
0.0
 11
106.72428120058071
 21
82.498658486483166
 31
0.0
  0
LINE
  5
99
  8
0_1_1
 10
76.20900342280305
 20
0.5039699612595446
 30
0.0
 11
76.20900342280305
 21
21.670636627926189
 31
0.0
  0
LINE
  5
9A
  8
0_1_1
 10
76.20900342280305
 20
21.406053294592851
 30
0.0
 11
70.652753422803059
 21
21.406053294592851
 31
0.0
  0
LINE
  5
9B
  8
0_1_1
 10
70.652753422803059
 20
21.406053294592851
 30
0.0
 11
70.917336756136393
 21
104.34304824869881
 31
0.0
  0
LINE
  5
9C
  8
0_1_1
 10
70.917336756136393
 20
104.34304824869881
 30
0.0
 11
78.590253422803073
 21
104.34304824869881
 31
0.0
  0
LINE
  5
9D
  8
0_1_1
 10
78.325670089469725
 20
104.34304824869881
 30
0.0
 11
78.325670089469725
 21
122.0701315820321
 31
0.0
  0
LINE
  5
9E
  8
0_1_1
 10
78.325670089469725
 20
121.8055482486988
 30
0.0
 11
100.02150342280299
 21
121.8055482486988
 31
0.0
  0
LINE
  5
9F
  8
0_1_1
 10
99.492336756136396
 20
121.8055482486988
 30
0.0
 11
99.227753422803062
 21
104.34304824869881
 31
0.0
  0
LINE
  5
A0
  8
0_1_1
 10
99.227753422803062
 20
104.34304824869881
 30
0.0
 11
106.63608675613619
 21
104.34304824869881
 31
0.0
  0
LINE
  5
A1
  8
0_1_1
 10
106.63608675613619
 20
104.34304824869881
 30
0.0
 11
106.3715034228029
 21
21.528464915365621
 31
0.0
  0
LINE
  5
A2
  8
0_1_1
 10
106.3715034228029
 20
21.793048248698959
 30
0.0
 11
95.259003422803076
 21
21.793048248698959
 31
0.0
  0
LINE
  5
A3
  8
0_1_1
 10
95.788170089469716
 20
21.957143502931761
 30
0.0
 11
95.788170089469716
 21
0.2613101695984548
 31
0.0
  0
LINE
  5
A4
  8
0_1_1
 10
95.788170089469716
 20
0.2613101695984548
 30
0.0
 11
76.20900342280305
 21
0.2613101695984548
 31
0.0
  0
ENDSEC
  0
EOF
