  0
SECTION
  2
HEADER
  9
$ACADVER
  1
AC1009
  9
$INSBASE
 10
0.0
 20
0.0
 30
0.0
  9
$EXTMIN
 10
-0.3651249999999528
 20
-4.8919795361951639
 30
-0.00000001
  9
$EXTMAX
 10
50.170291666666692
 20
80.509172589390843
 30
0.00000001
  9
$LIMMIN
 10
-0.2935703055679208
 20
-0.3796730791854999
  9
$LIMMAX
 10
2.2544036389012572
 20
3.2232544829903591
  9
$ORTHOMODE
 70
     0
  9
$REGENMODE
 70
     1
  9
$FILLMODE
 70
     1
  9
$QTEXTMODE
 70
     0
  9
$MIRRTEXT
 70
     1
  9
$DRAGMODE
 70
     2
  9
$LTSCALE
 40
1.0
  9
$OSMODE
 70
     0
  9
$ATTMODE
 70
     1
  9
$TEXTSIZE
 40
3.0801565480487021
  9
$TRACEWID
 40
0.05
  9
$TEXTSTYLE
  7
STANDARD
  9
$CLAYER
  8
0
  9
$CELTYPE
  6
BYLAYER
  9
$CECOLOR
 62
   256
  9
$DIMSCALE
 40
1.0
  9
$DIMASZ
 40
0.18
  9
$DIMEXO
 40
0.0625
  9
$DIMDLI
 40
0.38
  9
$DIMRND
 40
0.0
  9
$DIMDLE
 40
0.0
  9
$DIMEXE
 40
0.18
  9
$DIMTP
 40
0.0
  9
$DIMTM
 40
0.0
  9
$DIMTXT
 40
0.0485064023314757
  9
$DIMCEN
 40
0.09
  9
$DIMTSZ
 40
0.0
  9
$DIMTOL
 70
     0
  9
$DIMLIM
 70
     0
  9
$DIMTIH
 70
     1
  9
$DIMTOH
 70
     1
  9
$DIMSE1
 70
     0
  9
$DIMSE2
 70
     0
  9
$DIMTAD
 70
     0
  9
$DIMZIN
 70
     0
  9
$DIMBLK
  1

  9
$DIMASO
 70
     1
  9
$DIMSHO
 70
     1
  9
$DIMPOST
  1

  9
$DIMAPOST
  1

  9
$DIMALT
 70
     0
  9
$DIMALTD
 70
     2
  9
$DIMALTF
 40
25.399999999999999
  9
$DIMLFAC
 40
1.0
  9
$DIMTOFL
 70
     0
  9
$DIMTVP
 40
0.0
  9
$DIMTIX
 70
     0
  9
$DIMSOXD
 70
     0
  9
$DIMSAH
 70
     0
  9
$DIMBLK1
  1

  9
$DIMBLK2
  1

  9
$DIMSTYLE
  2
STANDARD
  9
$DIMCLRD
 70
     0
  9
$DIMCLRE
 70
     0
  9
$DIMCLRT
 70
     0
  9
$DIMTFAC
 40
1.0
  9
$DIMGAP
 40
0.09
  9
$LUNITS
 70
     2
  9
$LUPREC
 70
     0
  9
$SKETCHINC
 40
0.1
  9
$FILLETRAD
 40
3225.799999999997
  9
$AUNITS
 70
     0
  9
$AUPREC
 70
     0
  9
$MENU
  1
.
  9
$ELEVATION
 40
0.0
  9
$PELEVATION
 40
0.0
  9
$THICKNESS
 40
0.0
  9
$LIMCHECK
 70
     0
  9
$BLIPMODE
 70
     0
  9
$CHAMFERA
 40
3225.799999999997
  9
$CHAMFERB
 40
3225.799999999997
  9
$SKPOLY
 70
     0
  9
$TDCREATE
 40
2452165.9014214119
  9
$TDUPDATE
 40
2365705.9527421761
  9
$TDINDWG
 40
0.0
  9
$TDUSRTIMER
 40
0.0
  9
$USRTIMER
 70
     1
  9
$ANGBASE
 50
0.0
  9
$ANGDIR
 70
     0
  9
$PDMODE
 70
     0
  9
$PDSIZE
 40
0.0
  9
$PLINEWID
 40
0.0
  9
$COORDS
 70
     0
  9
$SPLFRAME
 70
     0
  9
$SPLINETYPE
 70
     6
  9
$SPLINESEGS
 70
     8
  9
$ATTDIA
 70
     0
  9
$ATTREQ
 70
     1
  9
$HANDLING
 70
 12289
  9
$HANDSEED
  5
B7
  9
$SURFTAB1
 70
     6
  9
$SURFTAB2
 70
     6
  9
$SURFTYPE
 70
     6
  9
$SURFU
 70
     6
  9
$SURFV
 70
     6
  9
$UCSNAME
  2

  9
$UCSORG
 10
0.0
 20
0.0
 30
0.0
  9
$UCSXDIR
 10
1.0
 20
0.0
 30
0.0
  9
$UCSYDIR
 10
0.0
 20
1.0
 30
0.0
  9
$PUCSNAME
  2

  9
$PUCSORG
 10
0.0
 20
0.0
 30
0.0
  9
$PUCSXDIR
 10
1.0
 20
0.0
 30
0.0
  9
$PUCSYDIR
 10
0.0
 20
1.0
 30
0.0
  9
$USERI1
 70
     0
  9
$USERI2
 70
     0
  9
$USERI3
 70
     0
  9
$USERI4
 70
     0
  9
$USERI5
 70
     0
  9
$USERR1
 40
0.0
  9
$USERR2
 40
0.0
  9
$USERR3
 40
0.0
  9
$USERR4
 40
0.0
  9
$USERR5
 40
0.0
  9
$WORLDVIEW
 70
     1
  9
$SHADEDGE
 70
     3
  9
$SHADEDIF
 70
    70
  9
$TILEMODE
 70
     1
  9
$MAXACTVP
 70
    64
  9
$PLIMCHECK
 70
     0
  9
$PEXTMIN
 10
1.0000000000000000E+020
 20
1.0000000000000000E+020
 30
1.0000000000000000E+020
  9
$PEXTMAX
 10
-1.0000000000000000E+020
 20
-1.0000000000000000E+020
 30
-1.0000000000000000E+020
  9
$PLIMMIN
 10
0.0
 20
0.0
  9
$PLIMMAX
 10
12.0
 20
9.0
  9
$UNITMODE
 70
     0
  9
$VISRETAIN
 70
     1
  9
$PLINEGEN
 70
     0
  9
$PSLTSCALE
 70
     1
  0
ENDSEC
  0
SECTION
  2
TABLES
  0
TABLE
  2
VPORT
 70
     1
  0
VPORT
  2
*ACTIVE
 70
     0
 10
0.0
 20
0.0
 11
1.0
 21
1.0
 12
24.72002083333339
 22
35.362606758500263
 13
0.0
 23
0.0
 14
1.0
 24
1.0
 15
0.0
 25
0.0
 16
0.0
 26
0.0
 36
1.0
 17
0.0
 27
0.0
 37
0.0
 40
80.509172589390843
 41
0.6231624304791068
 42
50.0
 43
0.0
 44
0.0
 50
0.0
 51
0.0
 71
     0
 72
   100
 73
     1
 74
     1
 75
     0
 76
     0
 77
     0
 78
     0
  0
ENDTAB
  0
TABLE
  2
LTYPE
 70
    47
  0
LTYPE
  2
CONTINUOUS
 70
     0
  3
Solid line
 72
    65
 73
     0
 40
0.0
  0
LTYPE
  2
HIDDEN
 70
     0
  3
_ _ _ _ _ _ _ _ _ _ _ _ _ _ 
 72
    65
 73
     2
 40
9.5249999999999986
 49
6.3499999999999988
 49
-3.1749999999999989
  0
LTYPE
  2
DASHED
 70
     0
  3
__ __ __ __ __ __ __ __ __ 
 72
    65
 73
     2
 40
19.04999999999999
 49
12.699999999999999
 49
-6.3499999999999988
  0
LTYPE
  2
CENTER
 70
     0
  3
____ _ ____ _ ____ _ ____ _ 
 72
    65
 73
     4
 40
50.799999999999997
 49
31.75
 49
-6.3499999999999988
 49
6.3499999999999988
 49
-6.3499999999999988
  0
LTYPE
  2
PHANTOM
 70
     0
  3
_____ _ _ _____ _ _ _____ _ _ 
 72
    65
 73
     6
 40
63.500000000000007
 49
31.75
 49
-6.3499999999999988
 49
6.3499999999999988
 49
-6.3499999999999988
 49
6.3499999999999988
 49
-6.3499999999999988
  0
LTYPE
  2
DOT
 70
     0
  3
...........................
 72
    65
 73
     2
 40
6.3499999999999988
 49
0.0
 49
-6.3499999999999988
  0
LTYPE
  2
DASHDOT
 70
     0
  3
__ . __ . __ . __ . __ . __ . 
 72
    65
 73
     4
 40
25.399999999999999
 49
12.699999999999999
 49
-6.3499999999999988
 49
0.0
 49
-6.3499999999999988
  0
LTYPE
  2
DIVIDE
 70
     0
  3
__ . . __ . . __ . . __ . . 
 72
    65
 73
     6
 40
31.75
 49
12.699999999999999
 49
-6.3499999999999988
 49
0.0
 49
-6.3499999999999988
 49
0.0
 49
-6.3499999999999988
  0
LTYPE
  2
BORDER
 70
     0
  3
__ __ . __ __ . __ __ . __ __ .
 72
    65
 73
     6
 40
44.449999999999989
 49
12.699999999999999
 49
-6.3499999999999988
 49
12.699999999999999
 49
-6.3499999999999988
 49
0.0
 49
-6.3499999999999988
  0
LTYPE
  2
RAND
 70
     0
  3
Rand __ __ . __ __ . __ __ . __
 72
    65
 73
     6
 40
1.75
 49
0.5
 49
-0.25
 49
0.5
 49
-0.25
 49
0.0
 49
-0.25
  0
LTYPE
  2
RAND2
 70
     0
  3
Rand (.5x) __.__.__.__.__.__.__
 72
    65
 73
     6
 40
0.875
 49
0.25
 49
-0.125
 49
0.25
 49
-0.125
 49
0.0
 49
-0.125
  0
LTYPE
  2
RANDX2
 70
     0
  3
Rand (2x) ____  ____  .  ____  
 72
    65
 73
     6
 40
3.5
 49
1.0
 49
-0.5
 49
1.0
 49
-0.5
 49
0.0
 49
-0.5
  0
LTYPE
  2
MITTE
 70
     0
  3
Mitte ____ _ ____ _ ____ _ ____
 72
    65
 73
     4
 40
2.0
 49
1.25
 49
-0.25
 49
0.25
 49
-0.25
  0
LTYPE
  2
MITTE2
 70
     0
  3
Mitte (.5x) ___ _ ___ _ ___ _ _
 72
    65
 73
     4
 40
1.125
 49
0.7500000000000001
 49
-0.125
 49
0.125
 49
-0.125
  0
LTYPE
  2
MITTEX2
 70
     0
  3
Mitte (2x) ________  __  ______
 72
    65
 73
     4
 40
4.0
 49
2.5
 49
-0.5
 49
0.5
 49
-0.5
  0
LTYPE
  2
STRICHPUNKT
 70
     0
  3
Strichpunkt __ . __ . __ . __ .
 72
    65
 73
     4
 40
1.0
 49
0.5
 49
-0.25
 49
0.0
 49
-0.25
  0
LTYPE
  2
STRICHPUNKT2
 70
     0
  3
Strichpunkt (.5x) _._._._._._._
 72
    65
 73
     4
 40
0.5
 49
0.25
 49
-0.125
 49
0.0
 49
-0.125
  0
LTYPE
  2
STRICHPUNKTX2
 70
     0
  3
Strichpunkt (2x) ____  .  ____ 
 72
    65
 73
     4
 40
2.0
 49
1.0
 49
-0.5
 49
0.0
 49
-0.5
  0
LTYPE
  2
STRICHLINIE
 70
     0
  3
Strichlinie __ __ __ __ __ __ _
 72
    65
 73
     2
 40
0.75
 49
0.5
 49
-0.25
  0
LTYPE
  2
STRICHLINIE2
 70
     0
  3
Strichlinie (.5x) _ _ _ _ _ _ _
 72
    65
 73
     2
 40
0.375
 49
0.25
 49
-0.125
  0
LTYPE
  2
STRICHLINIEX2
 70
     0
  3
Strichlinie (2x) ____  ____  __
 72
    65
 73
     2
 40
1.5
 49
1.0
 49
-0.5
  0
LTYPE
  2
GETRENNT
 70
     0
  3
Getrennt ____ . . ____ . . ____
 72
    65
 73
     6
 40
1.25
 49
0.5
 49
-0.25
 49
0.0
 49
-0.25
 49
0.0
 49
-0.25
  0
LTYPE
  2
GETRENNT2
 70
     0
  3
Getrennt (.5x) __..__..__..__..
 72
    65
 73
     6
 40
0.625
 49
0.25
 49
-0.125
 49
0.0
 49
-0.125
 49
0.0
 49
-0.125
  0
LTYPE
  2
GETRENNTX2
 70
     0
  3
Getrennt (2x) ________  .  .  _
 72
    65
 73
     6
 40
2.5
 49
1.0
 49
-0.5
 49
0.0
 49
-0.5
 49
0.0
 49
-0.5
  0
LTYPE
  2
PUNKT
 70
     0
  3
Punkt . . . . . . . . . . . . .
 72
    65
 73
     2
 40
0.25
 49
0.0
 49
-0.25
  0
LTYPE
  2
PUNKT2
 70
     0
  3
Punkt (.5x) ...................
 72
    65
 73
     2
 40
0.125
 49
0.0
 49
-0.125
  0
LTYPE
  2
PUNKTX2
 70
     0
  3
Punkt (2x) .  .  .  .  .  .  . 
 72
    65
 73
     2
 40
0.5
 49
0.0
 49
-0.5
  0
LTYPE
  2
VERDECKT
 70
     0
  3
Verdeckt __ __ __ __ __ __ __ _
 72
    65
 73
     2
 40
0.375
 49
0.25
 49
-0.125
  0
LTYPE
  2
VERDECKT2
 70
     0
  3
Verdeckt (.5x) _ _ _ _ _ _ _ _ 
 72
    65
 73
     2
 40
0.1875
 49
0.125
 49
-0.0625
  0
LTYPE
  2
VERDECKTX2
 70
     0
  3
Verdeckt (2x) ____ ____ ____ __
 72
    65
 73
     2
 40
0.75
 49
0.5
 49
-0.25
  0
LTYPE
  2
PHANTOM2
 70
     0
  3
Phantom (.5x) ___ _ _ ___ _ _ _
 72
    65
 73
     6
 40
1.25
 49
0.6250000000000001
 49
-0.125
 49
0.125
 49
-0.125
 49
0.125
 49
-0.125
  0
LTYPE
  2
PHANTOMX2
 70
     0
  3
Phantom (2x) ____________    __
 72
    65
 73
     6
 40
5.0
 49
2.5
 49
-0.5
 49
0.5
 49
-0.5
 49
0.5
 49
-0.5
  0
LTYPE
  2
PUNKTE
 70
     0
  3
Punkte - - - - - - - - - - - - 
 72
    65
 73
     2
 40
0.1
 49
0.05
 49
-0.05
  0
LTYPE
  2
ACAD_ISO02W100
 70
     0
  3
__ __ __ __ __ __ __ __ __ __ _
 72
    65
 73
     2
 40
15.0
 49
12.0
 49
-3.0
  0
LTYPE
  2
ACAD_ISO03W100
 70
     0
  3
__    __    __    __    __    _
 72
    65
 73
     2
 40
30.0
 49
12.0
 49
-18.0
  0
LTYPE
  2
ACAD_ISO04W100
 70
     0
  3
____ . ____ . ____ . ____ . ___
 72
    65
 73
     4
 40
30.5
 49
24.0
 49
-3.0
 49
0.5
 49
-3.0
  0
LTYPE
  2
ACAD_ISO05W100
 70
     0
  3
____ .. ____ .. ____ .. ____ ..
 72
    65
 73
     6
 40
34.0
 49
24.0
 49
-3.0
 49
0.5
 49
-3.0
 49
0.5
 49
-3.0
  0
LTYPE
  2
ACAD_ISO06W100
 70
     0
  3
____ ... ____ ... ____ ... ____
 72
    65
 73
     6
 40
34.0
 49
24.0
 49
-3.0
 49
0.5
 49
-3.0
 49
0.5
 49
-3.0
  0
LTYPE
  2
ACAD_ISO07W100
 70
     0
  3
. . . . . . . . . . . . . . . .
 72
    65
 73
     2
 40
3.5
 49
0.5
 49
-3.0
  0
LTYPE
  2
ACAD_ISO08W100
 70
     0
  3
____ __ ____ __ ____ __ ____ __
 72
    65
 73
     4
 40
36.0
 49
24.0
 49
-3.0
 49
6.0
 49
-3.0
  0
LTYPE
  2
ACAD_ISO09W100
 70
     0
  3
____ __ __ ____ __ __ ____ __ _
 72
    65
 73
     6
 40
45.0
 49
24.0
 49
-3.0
 49
6.0
 49
-3.0
 49
6.0
 49
-3.0
  0
LTYPE
  2
ACAD_ISO10W100
 70
     0
  3
__ . __ . __ . __ . __ . __ . _
 72
    65
 73
     4
 40
18.5
 49
12.0
 49
-3.0
 49
0.5
 49
-3.0
  0
LTYPE
  2
ACAD_ISO11W100
 70
     0
  3
__ __ . __ __ . __ __ . __ __ .
 72
    65
 73
     6
 40
33.5
 49
12.0
 49
-3.0
 49
12.0
 49
-3.0
 49
0.5
 49
-3.0
  0
LTYPE
  2
ACAD_ISO12W100
 70
     0
  3
__ . . __ . . __ . . __ . . __ 
 72
    65
 73
     6
 40
22.0
 49
12.0
 49
-3.0
 49
0.5
 49
-3.0
 49
0.5
 49
-3.0
  0
LTYPE
  2
ACAD_ISO13W100
 70
     0
  3
__ __ . . __ __ . . __ __ . . _
 72
    65
 73
     6
 40
33.5
 49
12.0
 49
-3.0
 49
12.0
 49
-3.0
 49
0.5
 49
-3.0
  0
LTYPE
  2
ACAD_ISO14W100
 70
     0
  3
__ . . . __ . . . __ . . . __ .
 72
    65
 73
     6
 40
22.0
 49
12.0
 49
-3.0
 49
0.5
 49
-3.0
 49
0.5
 49
-3.0
  0
LTYPE
  2
ACAD_ISO15W100
 70
     0
  3
__ __ . . . __ __ . . . __ __ .
 72
    65
 73
     6
 40
33.5
 49
12.0
 49
-3.0
 49
12.0
 49
-3.0
 49
0.5
 49
-3.0
  0
ENDTAB
  0
TABLE
  2
LAYER
 70
     3
  0
LAYER
  2
0
 70
     0
 62
     7
  6
CONTINUOUS
  0
LAYER
  2
0_1
 70
     0
 62
     7
  6
CONTINUOUS
  0
LAYER
  2
1
 70
     0
 62
     7
  6
CONTINUOUS
  0
ENDTAB
  0
TABLE
  2
STYLE
 70
     4
  0
STYLE
  2
STANDARD
 70
     0
 40
0.0
 41
1.0
 50
0.0
 71
     0
 42
3.0801565480487021
  3
txt
  4

  0
STYLE
  2
ITALIC
 70
     0
 40
0.0
 41
1.0
 50
0.0
 71
     0
 42
3.0801565480487021
  3
ITALIC
  4

  0
STYLE
  2
SIMPLEX
 70
     0
 40
0.0
 41
1.0
 50
0.0
 71
     0
 42
3.0801565480487021
  3
SIMPLEX
  4

  0
STYLE
  2
COMPLEX
 70
     0
 40
0.0
 41
1.0
 50
0.0
 71
     0
 42
3.0801565480487021
  3
COMPLEX
  4

  0
ENDTAB
  0
TABLE
  2
VIEW
 70
     0
  0
ENDTAB
  0
TABLE
  2
UCS
 70
     0
  0
ENDTAB
  0
TABLE
  2
APPID
 70
     1
  0
APPID
  2
ACAD
 70
     0
  0
ENDTAB
  0
TABLE
  2
DIMSTYLE
 70
     1
  0
DIMSTYLE
  2
STANDARD
 70
     0
  3

  4

  5

  6

  7

 40
1.0
 41
0.18
 42
0.0625
 43
0.38
 44
0.18
 45
0.0
 46
0.0
 47
0.0
 48
0.0
140
0.18
141
0.09
142
0.0
143
25.399999999999999
144
1.0
145
0.0
146
1.0
147
0.09
 71
     0
 72
     0
 73
     1
 74
     1
 75
     0
 76
     0
 77
     0
 78
     0
170
     0
171
     2
172
     0
173
     0
174
     0
175
     0
176
     0
177
     0
178
     0
  0
ENDTAB
  0
ENDSEC
  0
SECTION
  2
BLOCKS
  0
BLOCK
  8
0
  2
$MODEL_SPACE
 70
     0
 10
0.0
 20
0.0
 30
0.0
  3
$MODEL_SPACE
  1

  0
ENDBLK
  5
21
  8
0
  0
BLOCK
 67
     1
  8
0
  2
$PAPER_SPACE
 70
     0
 10
0.0
 20
0.0
 30
0.0
  3
$PAPER_SPACE
  1

  0
ENDBLK
  5
1D
 67
     1
  8
0
  0
ENDSEC
  0
SECTION
  2
ENTITIES
  0
LINE
  5
5B
  8
1
  6
CONTINUOUS
 62
     7
 10
-0.1005416666666203
 20
17.90279952910776
 30
0.0
 11
50.170291666666692
 21
17.90279952910776
 31
0.0
  0
LINE
  5
5C
  8
1
  6
CONTINUOUS
 62
     7
 10
-0.3651249999999528
 20
61.559049529107767
 30
0.0
 11
50.170291666666692
 21
61.559049529107767
 31
0.0
  0
CIRCLE
  5
5D
  8
1
  6
CONTINUOUS
 62
     7
 10
24.770291666666711
 20
39.334049529107773
 30
0.0
 40
21.431249999999991
  0
CIRCLE
  5
5E
  8
1
  6
CONTINUOUS
 62
     7
 10
24.770291666666711
 20
72.406966195774444
 30
0.0
 40
3.9775596667778288
  0
CIRCLE
  5
5F
  8
1
  6
CONTINUOUS
 62
     7
 10
24.770291666666711
 20
10.923755912724159
 30
0.0
 40
4.4979166666666668
  0
ARC
  5
60
  8
1
  6
CONTINUOUS
 62
     7
 10
8.5038163265306785
 20
57.50662155898268
 30
0.0
 40
27.103593224943069
 50
11.22374654159341
 51
53.118687715495732
  0
ARC
  5
61
  8
1
  6
CONTINUOUS
 62
     7
 10
39.457034302759212
 20
59.352272411605561
 30
0.0
 40
24.838056481268261
 50
127.0098513120921
 51
170.2096124795323
  0
LINE
  5
62
  8
1
  6
CONTINUOUS
 62
     7
 10
14.45154166666671
 20
63.311255912724143
 30
0.0
 11
35.353625000000051
 21
63.311255912724143
 31
0.0
  0
ARC
  5
63
  8
1
  6
CONTINUOUS
 62
     7
 10
55.594054446908117
 20
83.875912385993388
 30
0.0
 40
22.87083990421046
 50
188.46508256836501
 51
255.59844937189129
  0
ARC
  5
64
  8
1
  6
CONTINUOUS
 62
     7
 10
-4.7736176839989533
 20
82.359561143821878
 30
0.0
 40
21.158310353134691
 50
282.75969319063762
 51
354.98281927333352
  0
ARC
  5
65
  8
1
  6
CONTINUOUS
 62
     7
 10
-4.245022388059648
 20
-1.296439982798214
 30
0.0
 40
19.80250289975276
 50
3.9736832786005158
 51
77.919208257736656
  0
ARC
  5
66
  8
1
  6
CONTINUOUS
 62
     7
 10
53.074077963404982
 20
-0.7415906465439432
 30
0.0
 40
19.074083975085959
 50
99.561642090011688
 51
176.7480436395721
  0
POLYLINE
  5
67
  8
1
  6
CONTINUOUS
 62
     7
 66
     1
 10
0.0
 20
0.0
 30
0.0
  0
VERTEX
  5
7B
  8
1
  6
CONTINUOUS
 62
     7
 10
-0.2255674414824038
 20
13.58475657491592
 30
0.0
  0
VERTEX
  5
7C
  8
1
  6
CONTINUOUS
 62
     7
 10
2.743176489848643
 20
13.082863719196929
 30
0.0
  0
VERTEX
  5
7D
  8
1
  6
CONTINUOUS
 62
     7
 10
5.9311037568443972
 20
12.54201804032115
 30
0.0
  0
VERTEX
  5
7E
  8
1
  6
CONTINUOUS
 62
     7
 10
8.4880912580100816
 20
11.49728121207608
 30
0.0
  0
VERTEX
  5
7F
  8
1
  6
CONTINUOUS
 62
     7
 10
9.5640158918509286
 20
9.4837149082492758
 30
0.0
  0
VERTEX
  5
80
  8
1
  6
CONTINUOUS
 62
     7
 10
9.3040738190602266
 20
8.4254024135184125
 30
0.0
  0
VERTEX
  5
81
  8
1
  6
CONTINUOUS
 62
     7
 10
8.5497540329987451
 20
7.7087013182544917
 30
0.0
  0
VERTEX
  5
82
  8
1
  6
CONTINUOUS
 62
     7
 10
6.0054685272949326
 20
7.0326724289445668
 30
0.0
  0
VERTEX
  5
83
  8
1
  6
CONTINUOUS
 62
     7
 10
2.8261337872024499
 20
6.9207064459536669
 30
0.0
  0
VERTEX
  5
84
  8
1
  6
CONTINUOUS
 62
     7
 10
-0.0932757748157363
 20
6.8378815749159463
 30
0.0
  0
SEQEND
  5
85
  8
1
  6
CONTINUOUS
 62
     7
  0
POLYLINE
  5
68
  8
1
  6
CONTINUOUS
 62
     7
 66
     1
 10
0.0
 20
0.0
 30
0.0
  0
VERTEX
  5
86
  8
1
  6
CONTINUOUS
 62
     7
 10
49.780682558517569
 20
13.58475657491592
 30
0.0
  0
VERTEX
  5
87
  8
1
  6
CONTINUOUS
 62
     7
 10
46.758725405979369
 20
13.06103443523531
 30
0.0
  0
VERTEX
  5
88
  8
1
  6
CONTINUOUS
 62
     7
 10
43.511599117372512
 20
12.48945939522905
 30
0.0
  0
VERTEX
  5
89
  8
1
  6
CONTINUOUS
 62
     7
 10
40.918545799338169
 20
11.40719961173288
 30
0.0
  0
VERTEX
  5
8A
  8
1
  6
CONTINUOUS
 62
     7
 10
39.85880755851759
 20
9.3514232415826122
 30
0.0
  0
VERTEX
  5
8B
  8
1
  6
CONTINUOUS
 62
     7
 10
40.145016420445842
 20
8.2604552397948776
 30
0.0
  0
VERTEX
  5
8C
  8
1
  6
CONTINUOUS
 62
     7
 10
40.928683254771649
 20
7.5180582592806617
 30
0.0
  0
VERTEX
  5
8D
  8
1
  6
CONTINUOUS
 62
     7
 10
43.538632331861727
 20
6.8068081062616148
 30
0.0
  0
VERTEX
  5
8E
  8
1
  6
CONTINUOUS
 62
     7
 10
46.789137772279737
 20
6.6733342709030659
 30
0.0
  0
VERTEX
  5
8F
  8
1
  6
CONTINUOUS
 62
     7
 10
49.780682558517569
 20
6.573298241582612
 30
0.0
  0
SEQEND
  5
90
  8
1
  6
CONTINUOUS
 62
     7
  0
POLYLINE
  5
69
  8
1
  6
CONTINUOUS
 62
     7
 66
     1
 10
0.0
 20
0.0
 30
0.0
  0
VERTEX
  5
91
  8
1
  6
CONTINUOUS
 62
     7
 10
49.780682558517569
 20
75.663586003359612
 30
0.0
  0
VERTEX
  5
92
  8
1
  6
CONTINUOUS
 62
     7
 10
46.71693095076882
 20
75.159934334608366
 30
0.0
  0
VERTEX
  5
93
  8
1
  6
CONTINUOUS
 62
     7
 10
43.426676499777969
 20
74.596279452525351
 30
0.0
  0
VERTEX
  5
94
  8
1
  6
CONTINUOUS
 62
     7
 10
40.799883411490221
 20
73.507944512526166
 30
0.0
  0
VERTEX
  5
95
  8
1
  6
CONTINUOUS
 62
     7
 10
39.726515891850923
 20
71.430252670026306
 30
0.0
  0
VERTEX
  5
96
  8
1
  6
CONTINUOUS
 62
     7
 10
40.015612345746433
 20
70.303579250552801
 30
0.0
  0
VERTEX
  5
97
  8
1
  6
CONTINUOUS
 62
     7
 10
40.807473079016447
 20
69.515943748947137
 30
0.0
  0
VERTEX
  5
98
  8
1
  6
CONTINUOUS
 62
     7
 10
43.446915613181282
 20
68.696738331874343
 30
0.0
  0
VERTEX
  5
99
  8
1
  6
CONTINUOUS
 62
     7
 10
46.739699953347561
 20
68.450540083877485
 30
0.0
  0
VERTEX
  5
9A
  8
1
  6
CONTINUOUS
 62
     7
 10
49.780682558517569
 20
68.255252670026294
 30
0.0
  0
SEQEND
  5
9B
  8
1
  6
CONTINUOUS
 62
     7
  0
POLYLINE
  5
6A
  8
1
  6
CONTINUOUS
 62
     7
 66
     1
 10
0.0
 20
0.0
 30
0.0
  0
VERTEX
  5
9C
  8
1
  6
CONTINUOUS
 62
     7
 10
-0.0932757748157363
 20
75.663586003359612
 30
0.0
  0
VERTEX
  5
9D
  8
1
  6
CONTINUOUS
 62
     7
 10
3.2045076118263509
 20
75.213043103979075
 30
0.0
  0
VERTEX
  5
9E
  8
1
  6
CONTINUOUS
 62
     7
 10
6.7743365634667709
 20
74.748422160025143
 30
0.0
  0
VERTEX
  5
9F
  8
1
  6
CONTINUOUS
 62
     7
 10
9.6223385126326075
 20
73.71612272107177
 30
0.0
  0
VERTEX
  5
A0
  8
1
  6
CONTINUOUS
 62
     7
 10
10.75464089185091
 20
71.562544336692952
 30
0.0
  0
VERTEX
  5
A1
  8
1
  6
CONTINUOUS
 62
     7
 10
10.415472205241979
 20
70.381623666457912
 30
0.0
  0
VERTEX
  5
A2
  8
1
  6
CONTINUOUS
 62
     7
 10
9.535255113874312
 20
69.607359060295749
 30
0.0
  0
VERTEX
  5
A3
  8
1
  6
CONTINUOUS
 62
     7
 10
6.6432826092043911
 20
68.951309628369174
 30
0.0
  0
VERTEX
  5
A4
  8
1
  6
CONTINUOUS
 62
     7
 10
3.0619371625244081
 20
68.939419217271137
 30
0.0
  0
VERTEX
  5
A5
  8
1
  6
CONTINUOUS
 62
     7
 10
-0.2255674414824038
 20
68.916711003359609
 30
0.0
  0
SEQEND
  5
A6
  8
1
  6
CONTINUOUS
 62
     7
  0
POLYLINE
  5
6B
  8
1
  6
CONTINUOUS
 62
     7
 66
     1
 10
0.0
 20
0.0
 30
0.0
  0
VERTEX
  5
A7
  8
1
  6
CONTINUOUS
 62
     7
 10
49.905708333333472
 20
75.21913157491592
 30
0.0
  0
VERTEX
  5
A8
  8
1
  6
CONTINUOUS
 62
     7
 10
49.905708333333472
 20
80.344466195774444
 30
0.0
  0
VERTEX
  5
A9
  8
1
  6
CONTINUOUS
 62
     7
 10
-0.1005416666666203
 20
80.344466195774444
 30
0.0
  0
VERTEX
  5
AA
  8
1
  6
CONTINUOUS
 62
     7
 10
-0.1005416666666203
 20
76.012881574915937
 30
0.0
  0
SEQEND
  5
AB
  8
1
  6
CONTINUOUS
 62
     7
  0
POLYLINE
  5
6C
  8
1
  6
CONTINUOUS
 62
     7
 66
     1
 10
0.0
 20
0.0
 30
0.0
  0
VERTEX
  5
AC
  8
1
  6
CONTINUOUS
 62
     7
 10
-0.1005416666666203
 20
6.9837149082492802
 30
0.0
  0
VERTEX
  5
AD
  8
1
  6
CONTINUOUS
 62
     7
 10
-0.1005416666666203
 20
-0.0888671375588894
 30
0.0
  0
VERTEX
  5
AE
  8
1
  6
CONTINUOUS
 62
     7
 10
49.905708333333472
 20
-0.0888671375588894
 30
0.0
  0
VERTEX
  5
AF
  8
1
  6
CONTINUOUS
 62
     7
 10
49.905708333333472
 20
7.2482982415826056
 30
0.0
  0
SEQEND
  5
B0
  8
1
  6
CONTINUOUS
 62
     7
  0
POLYLINE
  5
6D
  8
1
  6
CONTINUOUS
 62
     7
 66
     1
 10
0.0
 20
0.0
 30
0.0
  0
VERTEX
  5
B1
  8
1
  6
CONTINUOUS
 62
     7
 10
49.905708333333472
 20
13.83579824158258
 30
0.0
  0
VERTEX
  5
B2
  8
1
  6
CONTINUOUS
 62
     7
 10
49.905708333333472
 20
68.631631574915943
 30
0.0
  0
SEQEND
  5
B3
  8
1
  6
CONTINUOUS
 62
     7
  0
POLYLINE
  5
6E
  8
1
  6
CONTINUOUS
 62
     7
 66
     1
 10
0.0
 20
0.0
 30
0.0
  0
VERTEX
  5
B4
  8
1
  6
CONTINUOUS
 62
     7
 10
-0.1005416666666203
 20
69.160798241582626
 30
0.0
  0
VERTEX
  5
B5
  8
1
  6
CONTINUOUS
 62
     7
 10
-0.1005416666666203
 20
13.57121490824926
 30
0.0
  0
SEQEND
  5
B6
  8
1
  6
CONTINUOUS
 62
     7
  0
LINE
  5
6F
  8
1
  6
CONTINUOUS
 62
     7
 10
14.524953391850911
 20
-4.8919795361951639
 30
0.0
 11
34.633286725184242
 21
-4.8919795361951639
 31
0.0
  0
LINE
  5
70
  8
1
  6
CONTINUOUS
 62
     7
 10
14.7013422807398
 20
-4.7155906473062732
 30
0.0
 11
14.7013422807398
 21
0.3996871304715035
 31
0.0
  0
LINE
  5
71
  8
1
  6
CONTINUOUS
 62
     7
 10
34.456897836295347
 20
-4.8919795361951639
 30
0.0
 11
34.456897836295347
 21
0.046909352693727
 31
0.0
  0
LINE
  5
72
  8
1
  6
CONTINUOUS
 62
     7
 10
16.818008947406462
 20
-3.1280906473062702
 30
0.0
 11
32.340231169628659
 21
-3.1280906473062702
 31
0.0
  0
LINE
  5
73
  8
1
  6
CONTINUOUS
 62
     7
 10
16.818008947406462
 20
-3.1280906473062702
 30
0.0
 11
16.818008947406462
 21
0.3996871304715028
 31
0.0
  0
LINE
  5
74
  8
1
  6
CONTINUOUS
 62
     7
 10
32.340231169628659
 20
-3.1280906473062702
 30
0.0
 11
32.340231169628659
 21
-0.3058684250840608
 31
0.0
  0
ENDSEC
  0
EOF
