  0
SECTION
  2
HEADER
  9
$ACADVER
  1
AC1009
  9
$INSBASE
 10
0.0
 20
0.0
 30
0.0
  9
$EXTMIN
 10
-0.0000000199441393
 20
-12.000000825284349
 30
-0.00000001
  9
$EXTMAX
 10
27.000000019944132
 20
57.000000825284353
 30
0.00000001
  9
$LIMMIN
 10
-0.4661402636111509
 20
-0.5338555432387916
  9
$LIMMAX
 10
1.5283284924748519
 20
2.2866175042129382
  9
$ORTHOMODE
 70
     0
  9
$REGENMODE
 70
     1
  9
$FILLMODE
 70
     1
  9
$QTEXTMODE
 70
     0
  9
$MIRRTEXT
 70
     1
  9
$DRAGMODE
 70
     2
  9
$LTSCALE
 40
1.0
  9
$OSMODE
 70
     0
  9
$ATTMODE
 70
     1
  9
$TEXTSIZE
 40
0.6029228404129392
  9
$TRACEWID
 40
0.05
  9
$TEXTSTYLE
  7
STANDARD
  9
$CLAYER
  8
0
  9
$CELTYPE
  6
BYLAYER
  9
$CECOLOR
 62
     9
  9
$DIMSCALE
 40
1.0
  9
$DIMASZ
 40
0.18
  9
$DIMEXO
 40
0.0625
  9
$DIMDLI
 40
0.38
  9
$DIMRND
 40
0.0
  9
$DIMDLE
 40
0.0
  9
$DIMEXE
 40
0.18
  9
$DIMTP
 40
0.0
  9
$DIMTM
 40
0.0
  9
$DIMTXT
 40
0.0379793915220749
  9
$DIMCEN
 40
0.09
  9
$DIMTSZ
 40
0.0
  9
$DIMTOL
 70
     0
  9
$DIMLIM
 70
     0
  9
$DIMTIH
 70
     1
  9
$DIMTOH
 70
     1
  9
$DIMSE1
 70
     0
  9
$DIMSE2
 70
     0
  9
$DIMTAD
 70
     0
  9
$DIMZIN
 70
     0
  9
$DIMBLK
  1

  9
$DIMASO
 70
     1
  9
$DIMSHO
 70
     1
  9
$DIMPOST
  1

  9
$DIMAPOST
  1

  9
$DIMALT
 70
     0
  9
$DIMALTD
 70
     2
  9
$DIMALTF
 40
25.399999999999999
  9
$DIMLFAC
 40
1.0
  9
$DIMTOFL
 70
     0
  9
$DIMTVP
 40
0.0
  9
$DIMTIX
 70
     0
  9
$DIMSOXD
 70
     0
  9
$DIMSAH
 70
     0
  9
$DIMBLK1
  1

  9
$DIMBLK2
  1

  9
$DIMSTYLE
  2
STANDARD
  9
$DIMCLRD
 70
     0
  9
$DIMCLRE
 70
     0
  9
$DIMCLRT
 70
     0
  9
$DIMTFAC
 40
1.0
  9
$DIMGAP
 40
0.09
  9
$LUNITS
 70
     2
  9
$LUPREC
 70
     4
  9
$SKETCHINC
 40
0.1
  9
$FILLETRAD
 40
254.0
  9
$AUNITS
 70
     0
  9
$AUPREC
 70
     0
  9
$MENU
  1
.
  9
$ELEVATION
 40
0.0
  9
$PELEVATION
 40
0.0
  9
$THICKNESS
 40
0.0
  9
$LIMCHECK
 70
     0
  9
$BLIPMODE
 70
     0
  9
$CHAMFERA
 40
254.0
  9
$CHAMFERB
 40
254.0
  9
$SKPOLY
 70
     0
  9
$TDCREATE
 40
2453332.6602576971
  9
$TDUPDATE
 40
2311954.5345548261
  9
$TDINDWG
 40
0.0000007176
  9
$TDUSRTIMER
 40
0.0000007176
  9
$USRTIMER
 70
     1
  9
$ANGBASE
 50
0.0
  9
$ANGDIR
 70
     0
  9
$PDMODE
 70
     0
  9
$PDSIZE
 40
0.0
  9
$PLINEWID
 40
0.0
  9
$COORDS
 70
     0
  9
$SPLFRAME
 70
     0
  9
$SPLINETYPE
 70
     6
  9
$SPLINESEGS
 70
     8
  9
$ATTDIA
 70
     0
  9
$ATTREQ
 70
     1
  9
$HANDLING
 70
 12289
  9
$HANDSEED
  5
AB
  9
$SURFTAB1
 70
     6
  9
$SURFTAB2
 70
     6
  9
$SURFTYPE
 70
     6
  9
$SURFU
 70
     6
  9
$SURFV
 70
     6
  9
$UCSNAME
  2

  9
$UCSORG
 10
0.0
 20
0.0
 30
0.0
  9
$UCSXDIR
 10
1.0
 20
0.0
 30
0.0
  9
$UCSYDIR
 10
0.0
 20
1.0
 30
0.0
  9
$PUCSNAME
  2

  9
$PUCSORG
 10
0.0
 20
0.0
 30
0.0
  9
$PUCSXDIR
 10
1.0
 20
0.0
 30
0.0
  9
$PUCSYDIR
 10
0.0
 20
1.0
 30
0.0
  9
$USERI1
 70
     0
  9
$USERI2
 70
     0
  9
$USERI3
 70
     0
  9
$USERI4
 70
     0
  9
$USERI5
 70
     0
  9
$USERR1
 40
0.0
  9
$USERR2
 40
0.0
  9
$USERR3
 40
0.0
  9
$USERR4
 40
0.0
  9
$USERR5
 40
0.0
  9
$WORLDVIEW
 70
     1
  9
$SHADEDGE
 70
     3
  9
$SHADEDIF
 70
    70
  9
$TILEMODE
 70
     1
  9
$MAXACTVP
 70
    64
  9
$PLIMCHECK
 70
     0
  9
$PEXTMIN
 10
1.0000000000000000E+020
 20
1.0000000000000000E+020
 30
1.0000000000000000E+020
  9
$PEXTMAX
 10
-1.0000000000000000E+020
 20
-1.0000000000000000E+020
 30
-1.0000000000000000E+020
  9
$PLIMMIN
 10
0.0
 20
0.0
  9
$PLIMMAX
 10
12.0
 20
9.0
  9
$UNITMODE
 70
     0
  9
$VISRETAIN
 70
     1
  9
$PLINEGEN
 70
     0
  9
$PSLTSCALE
 70
     1
  0
ENDSEC
  0
SECTION
  2
TABLES
  0
TABLE
  2
VPORT
 70
     1
  0
VPORT
  2
*ACTIVE
 70
     0
 10
0.0
 20
0.0
 11
1.0
 21
1.0
 12
13.03385974636091
 22
16.49999958735782
 13
0.0
 23
0.0
 14
1.0
 24
1.0
 15
0.0
 25
0.0
 16
0.0
 26
0.0
 36
1.0
 17
0.0
 27
0.0
 37
0.0
 40
57.000000825284353
 41
0.4736842040178943
 42
50.0
 43
0.0
 44
0.0
 50
0.0
 51
0.0
 71
     0
 72
   100
 73
     1
 74
     1
 75
     0
 76
     0
 77
     0
 78
     0
  0
ENDTAB
  0
TABLE
  2
LTYPE
 70
    47
  0
LTYPE
  2
CONTINUOUS
 70
     0
  3
Solid line
 72
    65
 73
     0
 40
0.0
  0
LTYPE
  2
HIDDEN
 70
     0
  3
_ _ _ _ _ _ _ _ _ _ _ _ _ _ 
 72
    65
 73
     2
 40
9.5249999999999986
 49
6.3499999999999988
 49
-3.1749999999999989
  0
LTYPE
  2
DASHED
 70
     0
  3
__ __ __ __ __ __ __ __ __ 
 72
    65
 73
     2
 40
19.04999999999999
 49
12.699999999999999
 49
-6.3499999999999988
  0
LTYPE
  2
CENTER
 70
     0
  3
____ _ ____ _ ____ _ ____ _ 
 72
    65
 73
     4
 40
50.799999999999997
 49
31.75
 49
-6.3499999999999988
 49
6.3499999999999988
 49
-6.3499999999999988
  0
LTYPE
  2
PHANTOM
 70
     0
  3
_____ _ _ _____ _ _ _____ _ _ 
 72
    65
 73
     6
 40
63.500000000000007
 49
31.75
 49
-6.3499999999999988
 49
6.3499999999999988
 49
-6.3499999999999988
 49
6.3499999999999988
 49
-6.3499999999999988
  0
LTYPE
  2
DOT
 70
     0
  3
...........................
 72
    65
 73
     2
 40
6.3499999999999988
 49
0.0
 49
-6.3499999999999988
  0
LTYPE
  2
DASHDOT
 70
     0
  3
__ . __ . __ . __ . __ . __ . 
 72
    65
 73
     4
 40
25.399999999999999
 49
12.699999999999999
 49
-6.3499999999999988
 49
0.0
 49
-6.3499999999999988
  0
LTYPE
  2
DIVIDE
 70
     0
  3
__ . . __ . . __ . . __ . . 
 72
    65
 73
     6
 40
31.75
 49
12.699999999999999
 49
-6.3499999999999988
 49
0.0
 49
-6.3499999999999988
 49
0.0
 49
-6.3499999999999988
  0
LTYPE
  2
BORDER
 70
     0
  3
__ __ . __ __ . __ __ . __ __ .
 72
    65
 73
     6
 40
44.449999999999989
 49
12.699999999999999
 49
-6.3499999999999988
 49
12.699999999999999
 49
-6.3499999999999988
 49
0.0
 49
-6.3499999999999988
  0
LTYPE
  2
RAND
 70
     0
  3
Rand __ __ . __ __ . __ __ . __
 72
    65
 73
     6
 40
1.75
 49
0.5
 49
-0.25
 49
0.5
 49
-0.25
 49
0.0
 49
-0.25
  0
LTYPE
  2
RAND2
 70
     0
  3
Rand (.5x) __.__.__.__.__.__.__
 72
    65
 73
     6
 40
0.875
 49
0.25
 49
-0.125
 49
0.25
 49
-0.125
 49
0.0
 49
-0.125
  0
LTYPE
  2
RANDX2
 70
     0
  3
Rand (2x) ____  ____  .  ____  
 72
    65
 73
     6
 40
3.5
 49
1.0
 49
-0.5
 49
1.0
 49
-0.5
 49
0.0
 49
-0.5
  0
LTYPE
  2
MITTE
 70
     0
  3
Mitte ____ _ ____ _ ____ _ ____
 72
    65
 73
     4
 40
2.0
 49
1.25
 49
-0.25
 49
0.25
 49
-0.25
  0
LTYPE
  2
MITTE2
 70
     0
  3
Mitte (.5x) ___ _ ___ _ ___ _ _
 72
    65
 73
     4
 40
1.125
 49
0.7500000000000001
 49
-0.125
 49
0.125
 49
-0.125
  0
LTYPE
  2
MITTEX2
 70
     0
  3
Mitte (2x) ________  __  ______
 72
    65
 73
     4
 40
4.0
 49
2.5
 49
-0.5
 49
0.5
 49
-0.5
  0
LTYPE
  2
STRICHPUNKT
 70
     0
  3
Strichpunkt __ . __ . __ . __ .
 72
    65
 73
     4
 40
1.0
 49
0.5
 49
-0.25
 49
0.0
 49
-0.25
  0
LTYPE
  2
STRICHPUNKT2
 70
     0
  3
Strichpunkt (.5x) _._._._._._._
 72
    65
 73
     4
 40
0.5
 49
0.25
 49
-0.125
 49
0.0
 49
-0.125
  0
LTYPE
  2
STRICHPUNKTX2
 70
     0
  3
Strichpunkt (2x) ____  .  ____ 
 72
    65
 73
     4
 40
2.0
 49
1.0
 49
-0.5
 49
0.0
 49
-0.5
  0
LTYPE
  2
STRICHLINIE
 70
     0
  3
Strichlinie __ __ __ __ __ __ _
 72
    65
 73
     2
 40
0.75
 49
0.5
 49
-0.25
  0
LTYPE
  2
STRICHLINIE2
 70
     0
  3
Strichlinie (.5x) _ _ _ _ _ _ _
 72
    65
 73
     2
 40
0.375
 49
0.25
 49
-0.125
  0
LTYPE
  2
STRICHLINIEX2
 70
     0
  3
Strichlinie (2x) ____  ____  __
 72
    65
 73
     2
 40
1.5
 49
1.0
 49
-0.5
  0
LTYPE
  2
GETRENNT
 70
     0
  3
Getrennt ____ . . ____ . . ____
 72
    65
 73
     6
 40
1.25
 49
0.5
 49
-0.25
 49
0.0
 49
-0.25
 49
0.0
 49
-0.25
  0
LTYPE
  2
GETRENNT2
 70
     0
  3
Getrennt (.5x) __..__..__..__..
 72
    65
 73
     6
 40
0.625
 49
0.25
 49
-0.125
 49
0.0
 49
-0.125
 49
0.0
 49
-0.125
  0
LTYPE
  2
GETRENNTX2
 70
     0
  3
Getrennt (2x) ________  .  .  _
 72
    65
 73
     6
 40
2.5
 49
1.0
 49
-0.5
 49
0.0
 49
-0.5
 49
0.0
 49
-0.5
  0
LTYPE
  2
PUNKT
 70
     0
  3
Punkt . . . . . . . . . . . . .
 72
    65
 73
     2
 40
0.25
 49
0.0
 49
-0.25
  0
LTYPE
  2
PUNKT2
 70
     0
  3
Punkt (.5x) ...................
 72
    65
 73
     2
 40
0.125
 49
0.0
 49
-0.125
  0
LTYPE
  2
PUNKTX2
 70
     0
  3
Punkt (2x) .  .  .  .  .  .  . 
 72
    65
 73
     2
 40
0.5
 49
0.0
 49
-0.5
  0
LTYPE
  2
VERDECKT
 70
     0
  3
Verdeckt __ __ __ __ __ __ __ _
 72
    65
 73
     2
 40
0.375
 49
0.25
 49
-0.125
  0
LTYPE
  2
VERDECKT2
 70
     0
  3
Verdeckt (.5x) _ _ _ _ _ _ _ _ 
 72
    65
 73
     2
 40
0.1875
 49
0.125
 49
-0.0625
  0
LTYPE
  2
VERDECKTX2
 70
     0
  3
Verdeckt (2x) ____ ____ ____ __
 72
    65
 73
     2
 40
0.75
 49
0.5
 49
-0.25
  0
LTYPE
  2
PHANTOM2
 70
     0
  3
Phantom (.5x) ___ _ _ ___ _ _ _
 72
    65
 73
     6
 40
1.25
 49
0.6250000000000001
 49
-0.125
 49
0.125
 49
-0.125
 49
0.125
 49
-0.125
  0
LTYPE
  2
PHANTOMX2
 70
     0
  3
Phantom (2x) ____________    __
 72
    65
 73
     6
 40
5.0
 49
2.5
 49
-0.5
 49
0.5
 49
-0.5
 49
0.5
 49
-0.5
  0
LTYPE
  2
PUNKTE
 70
     0
  3
Punkte - - - - - - - - - - - - 
 72
    65
 73
     2
 40
0.1
 49
0.05
 49
-0.05
  0
LTYPE
  2
ACAD_ISO02W100
 70
     0
  3
__ __ __ __ __ __ __ __ __ __ _
 72
    65
 73
     2
 40
15.0
 49
12.0
 49
-3.0
  0
LTYPE
  2
ACAD_ISO03W100
 70
     0
  3
__    __    __    __    __    _
 72
    65
 73
     2
 40
30.0
 49
12.0
 49
-18.0
  0
LTYPE
  2
ACAD_ISO04W100
 70
     0
  3
____ . ____ . ____ . ____ . ___
 72
    65
 73
     4
 40
30.5
 49
24.0
 49
-3.0
 49
0.5
 49
-3.0
  0
LTYPE
  2
ACAD_ISO05W100
 70
     0
  3
____ .. ____ .. ____ .. ____ ..
 72
    65
 73
     6
 40
34.0
 49
24.0
 49
-3.0
 49
0.5
 49
-3.0
 49
0.5
 49
-3.0
  0
LTYPE
  2
ACAD_ISO06W100
 70
     0
  3
____ ... ____ ... ____ ... ____
 72
    65
 73
     6
 40
34.0
 49
24.0
 49
-3.0
 49
0.5
 49
-3.0
 49
0.5
 49
-3.0
  0
LTYPE
  2
ACAD_ISO07W100
 70
     0
  3
. . . . . . . . . . . . . . . .
 72
    65
 73
     2
 40
3.5
 49
0.5
 49
-3.0
  0
LTYPE
  2
ACAD_ISO08W100
 70
     0
  3
____ __ ____ __ ____ __ ____ __
 72
    65
 73
     4
 40
36.0
 49
24.0
 49
-3.0
 49
6.0
 49
-3.0
  0
LTYPE
  2
ACAD_ISO09W100
 70
     0
  3
____ __ __ ____ __ __ ____ __ _
 72
    65
 73
     6
 40
45.0
 49
24.0
 49
-3.0
 49
6.0
 49
-3.0
 49
6.0
 49
-3.0
  0
LTYPE
  2
ACAD_ISO10W100
 70
     0
  3
__ . __ . __ . __ . __ . __ . _
 72
    65
 73
     4
 40
18.5
 49
12.0
 49
-3.0
 49
0.5
 49
-3.0
  0
LTYPE
  2
ACAD_ISO11W100
 70
     0
  3
__ __ . __ __ . __ __ . __ __ .
 72
    65
 73
     6
 40
33.5
 49
12.0
 49
-3.0
 49
12.0
 49
-3.0
 49
0.5
 49
-3.0
  0
LTYPE
  2
ACAD_ISO12W100
 70
     0
  3
__ . . __ . . __ . . __ . . __ 
 72
    65
 73
     6
 40
22.0
 49
12.0
 49
-3.0
 49
0.5
 49
-3.0
 49
0.5
 49
-3.0
  0
LTYPE
  2
ACAD_ISO13W100
 70
     0
  3
__ __ . . __ __ . . __ __ . . _
 72
    65
 73
     6
 40
33.5
 49
12.0
 49
-3.0
 49
12.0
 49
-3.0
 49
0.5
 49
-3.0
  0
LTYPE
  2
ACAD_ISO14W100
 70
     0
  3
__ . . . __ . . . __ . . . __ .
 72
    65
 73
     6
 40
22.0
 49
12.0
 49
-3.0
 49
0.5
 49
-3.0
 49
0.5
 49
-3.0
  0
LTYPE
  2
ACAD_ISO15W100
 70
     0
  3
__ __ . . . __ __ . . . __ __ .
 72
    65
 73
     6
 40
33.5
 49
12.0
 49
-3.0
 49
12.0
 49
-3.0
 49
0.5
 49
-3.0
  0
ENDTAB
  0
TABLE
  2
LAYER
 70
     1
  0
LAYER
  2
0
 70
     0
 62
     7
  6
CONTINUOUS
  0
ENDTAB
  0
TABLE
  2
STYLE
 70
     4
  0
STYLE
  2
STANDARD
 70
     0
 40
0.0
 41
1.0
 50
0.0
 71
     0
 42
0.6029228404129392
  3
txt
  4

  0
STYLE
  2
ITALIC
 70
     0
 40
0.0
 41
1.0
 50
0.0
 71
     0
 42
0.6029228404129392
  3
ITALIC
  4

  0
STYLE
  2
SIMPLEX
 70
     0
 40
0.0
 41
1.0
 50
0.0
 71
     0
 42
0.6029228404129392
  3
SIMPLEX
  4

  0
STYLE
  2
COMPLEX
 70
     0
 40
0.0
 41
1.0
 50
0.0
 71
     0
 42
0.6029228404129392
  3
COMPLEX
  4

  0
ENDTAB
  0
TABLE
  2
VIEW
 70
     0
  0
ENDTAB
  0
TABLE
  2
UCS
 70
     0
  0
ENDTAB
  0
TABLE
  2
APPID
 70
     1
  0
APPID
  2
ACAD
 70
     0
  0
ENDTAB
  0
TABLE
  2
DIMSTYLE
 70
     1
  0
DIMSTYLE
  2
STANDARD
 70
     0
  3

  4

  5

  6

  7

 40
1.0
 41
0.18
 42
0.0625
 43
0.38
 44
0.18
 45
0.0
 46
0.0
 47
0.0
 48
0.0
140
0.18
141
0.09
142
0.0
143
25.399999999999999
144
1.0
145
0.0
146
1.0
147
0.09
 71
     0
 72
     0
 73
     1
 74
     1
 75
     0
 76
     0
 77
     0
 78
     0
170
     0
171
     2
172
     0
173
     0
174
     0
175
     0
176
     0
177
     0
178
     0
  0
ENDTAB
  0
ENDSEC
  0
SECTION
  2
BLOCKS
  0
BLOCK
  8
0
  2
$MODEL_SPACE
 70
     0
 10
0.0
 20
0.0
 30
0.0
  3
$MODEL_SPACE
  1

  0
ENDBLK
  5
21
  8
0
  0
BLOCK
 67
     1
  8
0
  2
$PAPER_SPACE
 70
     0
 10
0.0
 20
0.0
 30
0.0
  3
$PAPER_SPACE
  1

  0
ENDBLK
  5
1D
 67
     1
  8
0
  0
BLOCK
  8
0
 62
     9
  2
*U1
 70
     1
 10
0.0
 20
0.0
 30
0.0
  3
*U1
  1

  0
SOLID
  5
7C
  8
0
  6
CONTINUOUS
 62
   150
 10
17.5
 20
45.0
 30
0.0
 11
9.5
 21
45.0
 31
0.0
 12
17.439231012048829
 22
44.30540728933228
 32
0.0
 13
17.439231012048829
 23
44.30540728933228
 33
0.0
210
0.0
220
0.0
230
1.0
  0
SOLID
  5
7D
  8
0
  6
CONTINUOUS
 62
   150
 10
9.5607689879511675
 20
44.30540728933228
 30
0.0
 11
17.439231012048829
 21
44.30540728933228
 31
0.0
 12
9.5
 22
45.0
 32
0.0
 13
9.5
 23
45.0
 33
0.0
210
0.0
220
0.0
230
1.0
  0
SOLID
  5
7E
  8
0
  6
CONTINUOUS
 62
   150
 10
17.439231012048829
 20
44.30540728933228
 30
0.0
 11
9.5607689879511675
 21
44.30540728933228
 31
0.0
 12
17.258770483143628
 22
43.631919426697323
 32
0.0
 13
17.258770483143628
 23
43.631919426697323
 33
0.0
210
0.0
220
0.0
230
1.0
  0
SOLID
  5
7F
  8
0
  6
CONTINUOUS
 62
   150
 10
9.7412295168563663
 20
43.631919426697323
 30
0.0
 11
17.258770483143628
 21
43.631919426697323
 31
0.0
 12
9.5607689879511675
 22
44.30540728933228
 32
0.0
 13
9.5607689879511675
 23
44.30540728933228
 33
0.0
210
0.0
220
0.0
230
1.0
  0
SOLID
  5
80
  8
0
  6
CONTINUOUS
 62
   150
 10
17.258770483143628
 20
43.631919426697323
 30
0.0
 11
9.7412295168563663
 21
43.631919426697323
 31
0.0
 12
16.964101615137739
 22
43.0
 32
0.0
 13
16.964101615137739
 23
43.0
 33
0.0
210
0.0
220
0.0
230
1.0
  0
SOLID
  5
81
  8
0
  6
CONTINUOUS
 62
   150
 10
10.035898384862239
 20
43.0
 30
0.0
 11
16.964101615137739
 21
43.0
 31
0.0
 12
9.7412295168563663
 22
43.631919426697323
 32
0.0
 13
9.7412295168563663
 23
43.631919426697323
 33
0.0
210
0.0
220
0.0
230
1.0
  0
SOLID
  5
82
  8
0
  6
CONTINUOUS
 62
   150
 10
16.964101615137739
 20
43.0
 30
0.0
 11
10.035898384862239
 21
43.0
 31
0.0
 12
16.564177772475901
 22
42.428849561253841
 32
0.0
 13
16.564177772475901
 23
42.428849561253841
 33
0.0
  0
SOLID
  5
83
  8
0
  6
CONTINUOUS
 62
   150
 10
10.43582222752408
 20
42.428849561253841
 30
0.0
 11
16.564177772475901
 21
42.428849561253841
 31
0.0
 12
10.035898384862239
 22
43.0
 32
0.0
 13
10.035898384862239
 23
43.0
 33
0.0
  0
SOLID
  5
84
  8
0
  6
CONTINUOUS
 62
   150
 10
16.564177772475901
 20
42.428849561253841
 30
0.0
 11
10.43582222752408
 21
42.428849561253841
 31
0.0
 12
16.071150438746152
 22
41.935822227524092
 32
0.0
 13
16.071150438746152
 23
41.935822227524092
 33
0.0
210
0.0
220
0.0
230
1.0
  0
SOLID
  5
85
  8
0
  6
CONTINUOUS
 62
   150
 10
10.928849561253839
 20
41.935822227524092
 30
0.0
 11
16.071150438746152
 21
41.935822227524092
 31
0.0
 12
10.43582222752408
 22
42.428849561253841
 32
0.0
 13
10.43582222752408
 23
42.428849561253841
 33
0.0
210
0.0
220
0.0
230
1.0
  0
SOLID
  5
86
  8
0
  6
CONTINUOUS
 62
   150
 10
16.071150438746152
 20
41.935822227524092
 30
0.0
 11
10.928849561253839
 21
41.935822227524092
 31
0.0
 12
15.499999999999989
 22
41.53589838486225
 32
0.0
 13
15.499999999999989
 23
41.53589838486225
 33
0.0
210
0.0
220
0.0
230
1.0
  0
SOLID
  5
87
  8
0
  6
CONTINUOUS
 62
   150
 10
11.5
 20
41.53589838486225
 30
0.0
 11
15.499999999999989
 21
41.53589838486225
 31
0.0
 12
10.928849561253839
 22
41.935822227524092
 32
0.0
 13
10.928849561253839
 23
41.935822227524092
 33
0.0
210
0.0
220
0.0
230
1.0
  0
SOLID
  5
88
  8
0
  6
CONTINUOUS
 62
   150
 10
15.499999999999989
 20
41.53589838486225
 30
0.0
 11
11.5
 21
41.53589838486225
 31
0.0
 12
14.86808057330267
 22
41.241229516856357
 32
0.0
 13
14.86808057330267
 23
41.241229516856357
 33
0.0
210
0.0
220
0.0
230
1.0
  0
SOLID
  5
89
  8
0
  6
CONTINUOUS
 62
   150
 10
12.131919426697319
 20
41.241229516856357
 30
0.0
 11
14.86808057330267
 21
41.241229516856357
 31
0.0
 12
11.5
 22
41.53589838486225
 32
0.0
 13
11.5
 23
41.53589838486225
 33
0.0
210
0.0
220
0.0
230
1.0
  0
SOLID
  5
8A
  8
0
  6
CONTINUOUS
 62
   150
 10
14.86808057330267
 20
41.241229516856357
 30
0.0
 11
12.131919426697319
 21
41.241229516856357
 31
0.0
 12
14.19459271066772
 22
41.060768987951171
 32
0.0
 13
14.19459271066772
 23
41.060768987951171
 33
0.0
210
0.0
220
0.0
230
1.0
  0
SOLID
  5
8B
  8
0
  6
CONTINUOUS
 62
   150
 10
12.805407289332271
 20
41.060768987951171
 30
0.0
 11
14.19459271066772
 21
41.060768987951171
 31
0.0
 12
12.131919426697319
 22
41.241229516856357
 32
0.0
 13
12.131919426697319
 23
41.241229516856357
 33
0.0
210
0.0
220
0.0
230
1.0
  0
SOLID
  5
8C
  8
0
  6
CONTINUOUS
 62
   150
 10
14.19459271066772
 20
41.060768987951171
 30
0.0
 11
12.805407289332271
 21
41.060768987951171
 31
0.0
 12
13.499999999999989
 22
41.0
 32
0.0
 13
13.499999999999989
 23
41.0
 33
0.0
210
0.0
220
0.0
230
1.0
  0
ENDBLK
  5
8E
  8
0
 62
     9
  0
BLOCK
  8
0
 62
     9
  2
*U2
 70
     1
 10
0.0
 20
0.0
 30
0.0
  3
*U2
  1

  0
SOLID
  5
90
  8
0
  6
CONTINUOUS
 62
   150
 10
9.5
 20
0.0
 30
0.0
 11
17.5
 21
0.0
 31
0.0
 12
9.560768987951171
 22
0.6945927106677217
 32
0.0
 13
9.560768987951171
 23
0.6945927106677217
 33
0.0
210
0.0
220
0.0
230
1.0
  0
SOLID
  5
91
  8
0
  6
CONTINUOUS
 62
   150
 10
17.439231012048829
 20
0.6945927106677213
 30
0.0
 11
9.560768987951171
 21
0.6945927106677217
 31
0.0
 12
17.5
 22
0.0
 32
0.0
 13
17.5
 23
0.0
 33
0.0
210
0.0
220
0.0
230
1.0
  0
SOLID
  5
92
  8
0
  6
CONTINUOUS
 62
   150
 10
9.560768987951171
 20
0.6945927106677217
 30
0.0
 11
17.439231012048829
 21
0.6945927106677213
 31
0.0
 12
9.7412295168563698
 22
1.368080573302674
 32
0.0
 13
9.7412295168563698
 23
1.368080573302674
 33
0.0
210
0.0
220
0.0
230
1.0
  0
SOLID
  5
93
  8
0
  6
CONTINUOUS
 62
   150
 10
17.258770483143628
 20
1.368080573302674
 30
0.0
 11
9.7412295168563698
 21
1.368080573302674
 31
0.0
 12
17.439231012048829
 22
0.6945927106677213
 32
0.0
 13
17.439231012048829
 23
0.6945927106677213
 33
0.0
210
0.0
220
0.0
230
1.0
  0
SOLID
  5
94
  8
0
  6
CONTINUOUS
 62
   150
 10
9.7412295168563698
 20
1.368080573302674
 30
0.0
 11
17.258770483143628
 21
1.368080573302674
 31
0.0
 12
10.035898384862239
 22
1.9999999999999989
 32
0.0
 13
10.035898384862239
 23
1.9999999999999989
 33
0.0
210
0.0
220
0.0
230
1.0
  0
SOLID
  5
95
  8
0
  6
CONTINUOUS
 62
   150
 10
16.96410161513775
 20
1.9999999999999989
 30
0.0
 11
10.035898384862239
 21
1.9999999999999989
 31
0.0
 12
17.258770483143628
 22
1.368080573302674
 32
0.0
 13
17.258770483143628
 23
1.368080573302674
 33
0.0
210
0.0
220
0.0
230
1.0
  0
SOLID
  5
96
  8
0
  6
CONTINUOUS
 62
   150
 10
10.035898384862239
 20
1.9999999999999989
 30
0.0
 11
16.96410161513775
 21
1.9999999999999989
 31
0.0
 12
10.43582222752408
 22
2.5711504387461561
 32
0.0
 13
10.43582222752408
 23
2.5711504387461561
 33
0.0
210
0.0
220
0.0
230
1.0
  0
SOLID
  5
97
  8
0
  6
CONTINUOUS
 62
   150
 10
16.564177772475912
 20
2.5711504387461561
 30
0.0
 11
10.43582222752408
 21
2.5711504387461561
 31
0.0
 12
16.96410161513775
 22
1.9999999999999989
 32
0.0
 13
16.96410161513775
 23
1.9999999999999989
 33
0.0
210
0.0
220
0.0
230
1.0
  0
SOLID
  5
98
  8
0
  6
CONTINUOUS
 62
   150
 10
10.43582222752408
 20
2.5711504387461561
 30
0.0
 11
16.564177772475912
 21
2.5711504387461561
 31
0.0
 12
10.928849561253839
 22
3.0641777724759098
 32
0.0
 13
10.928849561253839
 23
3.0641777724759098
 33
0.0
210
0.0
220
0.0
230
1.0
  0
SOLID
  5
99
  8
0
  6
CONTINUOUS
 62
   150
 10
16.071150438746159
 20
3.0641777724759112
 30
0.0
 11
10.928849561253839
 21
3.0641777724759098
 31
0.0
 12
16.564177772475912
 22
2.5711504387461561
 32
0.0
 13
16.564177772475912
 23
2.5711504387461561
 33
0.0
210
0.0
220
0.0
230
1.0
  0
SOLID
  5
9A
  8
0
  6
CONTINUOUS
 62
   150
 10
10.928849561253839
 20
3.0641777724759098
 30
0.0
 11
16.071150438746159
 21
3.0641777724759112
 31
0.0
 12
11.5
 22
3.4641016151377531
 32
0.0
 13
11.5
 23
3.4641016151377531
 33
0.0
210
0.0
220
0.0
230
1.0
  0
SOLID
  5
9B
  8
0
  6
CONTINUOUS
 62
   150
 10
15.5
 20
3.4641016151377531
 30
0.0
 11
11.5
 21
3.4641016151377531
 31
0.0
 12
16.071150438746159
 22
3.0641777724759112
 32
0.0
 13
16.071150438746159
 23
3.0641777724759112
 33
0.0
210
0.0
220
0.0
230
1.0
  0
SOLID
  5
9C
  8
0
  6
CONTINUOUS
 62
   150
 10
11.5
 20
3.4641016151377531
 30
0.0
 11
15.5
 21
3.4641016151377531
 31
0.0
 12
12.131919426697319
 22
3.758770483143631
 32
0.0
 13
12.131919426697319
 23
3.758770483143631
 33
0.0
210
0.0
220
0.0
230
1.0
  0
SOLID
  5
9D
  8
0
  6
CONTINUOUS
 62
   150
 10
14.86808057330267
 20
3.7587704831436319
 30
0.0
 11
12.131919426697319
 21
3.758770483143631
 31
0.0
 12
15.5
 22
3.4641016151377531
 32
0.0
 13
15.5
 23
3.4641016151377531
 33
0.0
210
0.0
220
0.0
230
1.0
  0
SOLID
  5
9E
  8
0
  6
CONTINUOUS
 62
   150
 10
12.131919426697319
 20
3.758770483143631
 30
0.0
 11
14.86808057330267
 21
3.7587704831436319
 31
0.0
 12
12.80540728933228
 22
3.9392310120488299
 32
0.0
 13
12.80540728933228
 23
3.9392310120488299
 33
0.0
210
0.0
220
0.0
230
1.0
  0
SOLID
  5
9F
  8
0
  6
CONTINUOUS
 62
   150
 10
14.19459271066772
 20
3.9392310120488312
 30
0.0
 11
12.80540728933228
 21
3.9392310120488299
 31
0.0
 12
14.86808057330267
 22
3.7587704831436319
 32
0.0
 13
14.86808057330267
 23
3.7587704831436319
 33
0.0
210
0.0
220
0.0
230
1.0
  0
SOLID
  5
A0
  8
0
  6
CONTINUOUS
 62
   150
 10
12.80540728933228
 20
3.9392310120488299
 30
0.0
 11
14.19459271066772
 21
3.9392310120488312
 31
0.0
 12
13.5
 22
3.9999999999999978
 32
0.0
 13
13.5
 23
3.9999999999999978
 33
0.0
  0
ENDBLK
  5
A2
  8
0
 62
     9
  0
ENDSEC
  0
SECTION
  2
ENTITIES
  0
POLYLINE
  5
59
  8
0
 66
     1
 10
0.0
 20
0.0
 30
0.0
 70
     1
  0
VERTEX
  5
6E
  8
0
 10
0.0
 20
0.0
 30
0.0
  0
VERTEX
  5
6F
  8
0
 10
26.999999999999989
 20
0.0
 30
0.0
  0
VERTEX
  5
70
  8
0
 10
26.999999999999989
 20
45.0
 30
0.0
  0
VERTEX
  5
71
  8
0
 10
0.0
 20
45.0
 30
0.0
  0
SEQEND
  5
72
  8
0
  0
POLYLINE
  5
5A
  8
0
 62
   150
 66
     1
 10
0.0
 20
0.0
 30
0.0
  0
VERTEX
  5
73
  8
0
 62
   150
 10
0.0
 20
55.0
 30
0.0
  0
VERTEX
  5
74
  8
0
 62
   150
 10
0.0
 20
45.0
 30
0.0
  0
VERTEX
  5
75
  8
0
 62
   150
 10
26.999999999999989
 20
45.0
 30
0.0
  0
VERTEX
  5
76
  8
0
 62
   150
 10
26.999999999999989
 20
55.0
 30
0.0
  0
SEQEND
  5
77
  8
0
 62
   150
  0
ARC
  5
5B
  8
0
 62
   150
 10
0.429721
 20
70.281115999999983
 30
0.0
 40
15.287155999999991
 50
268.389207
 51
299.68327999999991
  0
ARC
  5
5C
  8
0
 62
   150
 10
26.570278999999999
 20
70.281115999999983
 30
0.0
 40
15.287155999999991
 50
240.31672
 51
271.610793
  0
POLYLINE
  5
5D
  8
0
 62
   150
 66
     1
 10
0.0
 20
0.0
 30
0.0
  0
VERTEX
  5
78
  8
0
 62
   150
 10
19.0
 20
57.0
 30
0.0
  0
VERTEX
  5
79
  8
0
 62
   150
 10
7.9999999999999991
 20
57.0
 30
0.0
  0
SEQEND
  5
7A
  8
0
 62
   150
  0
CIRCLE
  5
5E
  8
0
 62
   150
 10
13.499999999999989
 20
45.0
 30
0.0
 40
3.9999999999999991
  0
INSERT
  5
5F
  8
0
  6
CONTINUOUS
 62
   150
  2
*U1
 10
0.0
 20
0.0
 30
0.0
1001
ACAD
1002
{
1000
R14_HATCH_DATA
1000
5F
1011
1.0
1021
0.0
1031
0.0
1021
0.0
1031
0.0
1011
0.0
1021
0.0
1031
0.0
1021
1.0
1031
0.0
1011
0.0
1021
0.0
1031
0.0
1021
0.0
1031
1.0
1040
0.0
1010
0.0
1020
0.0
1030
1.0
1000
SOLID
1070
     1
1070
     0
1071
        1
1071
        3
1070
     1
1070
     1
1071
        2
1040
17.5
1040
45.0
1040
0.0
1040
9.5
1040
45.0
1040
1.0
1071
        0
1070
     0
1070
     1
1071
        1
1040
0.0
1040
0.0
1040
0.0
1002
}
  0
ARC
  5
60
  8
0
 62
   150
 10
26.570278999999999
 20
-25.281116000000001
 30
0.0
 40
15.287155999999991
 50
88.389206999999999
 51
119.6832799999999
  0
ARC
  5
61
  8
0
 62
   150
 10
0.429721
 20
-25.281116000000001
 30
0.0
 40
15.287155999999991
 50
60.316719999999997
 51
91.610793000000001
  0
INSERT
  5
62
  8
0
  6
CONTINUOUS
 62
   150
  2
*U2
 10
0.0
 20
0.0
 30
0.0
1001
ACAD
1002
{
1000
R14_HATCH_DATA
1000
62
1011
1.0
1021
0.0
1031
0.0
1021
0.0
1031
0.0
1011
0.0
1021
0.0
1031
0.0
1021
1.0
1031
0.0
1011
0.0
1021
0.0
1031
0.0
1021
0.0
1031
1.0
1040
0.0
1010
0.0
1020
0.0
1030
1.0
1000
SOLID
1070
     1
1070
     0
1071
        1
1071
        3
1070
     1
1070
     1
1071
        2
1040
9.5
1040
0.0
1040
0.0
1040
17.5
1040
0.0
1040
1.0
1071
        0
1070
     0
1070
     1
1071
        1
1040
0.0
1040
0.0
1040
0.0
1002
}
  0
POLYLINE
  5
63
  8
0
 62
   150
 66
     1
 10
0.0
 20
0.0
 30
0.0
  0
VERTEX
  5
A3
  8
0
 62
   150
 10
0.0
 20
-9.9999999999999982
 30
0.0
  0
VERTEX
  5
A4
  8
0
 62
   150
 10
0.0
 20
0.0
 30
0.0
  0
VERTEX
  5
A5
  8
0
 62
   150
 10
26.999999999999989
 20
0.0
 30
0.0
  0
VERTEX
  5
A6
  8
0
 62
   150
 10
26.999999999999989
 20
-9.9999999999999982
 30
0.0
  0
SEQEND
  5
A7
  8
0
 62
   150
  0
CIRCLE
  5
64
  8
0
 62
   150
 10
13.499999999999989
 20
0.0
 30
0.0
 40
3.9999999999999991
  0
POLYLINE
  5
65
  8
0
 62
   150
 66
     1
 10
0.0
 20
0.0
 30
0.0
  0
VERTEX
  5
A8
  8
0
 62
   150
 10
19.0
 20
-12.0
 30
0.0
  0
VERTEX
  5
A9
  8
0
 62
   150
 10
7.9999999999999991
 20
-12.0
 30
0.0
  0
SEQEND
  5
AA
  8
0
 62
   150
  0
CIRCLE
  5
66
  8
0
 62
     9
 10
13.499999999999989
 20
22.5
 30
0.0
 40
11.281855999999991
  0
CIRCLE
  5
67
  8
0
 62
     9
 10
13.499999999999989
 20
22.5
 30
0.0
 40
7.0
  0
ENDSEC
  0
EOF
