  0
SECTION
  2
HEADER
  9
$ACADVER
  1
AC1009
  9
$INSBASE
 10
0.0
 20
0.0
 30
0.0
  9
$EXTMIN
 10
-7.9828473789099323
 20
9.6570721446636192
 30
-0.00000001
  9
$EXTMAX
 10
15.45422304874988
 20
35.698261508730077
 30
0.00000001
  9
$LIMMIN
 10
-10.11319737540436
 20
-0.8557539606552989
  9
$LIMMAX
 10
17.677845031926559
 20
38.444879770147018
  9
$ORTHOMODE
 70
     0
  9
$REGENMODE
 70
     1
  9
$FILLMODE
 70
     1
  9
$QTEXTMODE
 70
     0
  9
$MIRRTEXT
 70
     1
  9
$DRAGMODE
 70
     2
  9
$LTSCALE
 40
1.0
  9
$OSMODE
 70
     0
  9
$ATTMODE
 70
     1
  9
$TEXTSIZE
 40
0.1331644526946399
  9
$TRACEWID
 40
0.05
  9
$TEXTSTYLE
  7
STANDARD
  9
$CLAYER
  8
0
  9
$CELTYPE
  6
BYLAYER
  9
$CECOLOR
 62
   252
  9
$DIMSCALE
 40
1.0
  9
$DIMASZ
 40
0.18
  9
$DIMEXO
 40
0.0625
  9
$DIMDLI
 40
0.38
  9
$DIMRND
 40
0.0
  9
$DIMDLE
 40
0.0
  9
$DIMEXE
 40
0.18
  9
$DIMTP
 40
0.0
  9
$DIMTM
 40
0.0
  9
$DIMTXT
 40
0.5292070267703383
  9
$DIMCEN
 40
0.09
  9
$DIMTSZ
 40
0.0
  9
$DIMTOL
 70
     0
  9
$DIMLIM
 70
     0
  9
$DIMTIH
 70
     1
  9
$DIMTOH
 70
     1
  9
$DIMSE1
 70
     0
  9
$DIMSE2
 70
     0
  9
$DIMTAD
 70
     0
  9
$DIMZIN
 70
     0
  9
$DIMBLK
  1

  9
$DIMASO
 70
     1
  9
$DIMSHO
 70
     1
  9
$DIMPOST
  1

  9
$DIMAPOST
  1

  9
$DIMALT
 70
     0
  9
$DIMALTD
 70
     2
  9
$DIMALTF
 40
25.399999999999999
  9
$DIMLFAC
 40
1.0
  9
$DIMTOFL
 70
     0
  9
$DIMTVP
 40
0.0
  9
$DIMTIX
 70
     0
  9
$DIMSOXD
 70
     0
  9
$DIMSAH
 70
     0
  9
$DIMBLK1
  1

  9
$DIMBLK2
  1

  9
$DIMSTYLE
  2
STANDARD
  9
$DIMCLRD
 70
     0
  9
$DIMCLRE
 70
     0
  9
$DIMCLRT
 70
     0
  9
$DIMTFAC
 40
1.0
  9
$DIMGAP
 40
0.09
  9
$LUNITS
 70
     2
  9
$LUPREC
 70
     4
  9
$SKETCHINC
 40
0.1
  9
$FILLETRAD
 40
254.0
  9
$AUNITS
 70
     0
  9
$AUPREC
 70
     0
  9
$MENU
  1
.
  9
$ELEVATION
 40
0.0
  9
$PELEVATION
 40
0.0
  9
$THICKNESS
 40
0.0
  9
$LIMCHECK
 70
     0
  9
$BLIPMODE
 70
     0
  9
$CHAMFERA
 40
254.0
  9
$CHAMFERB
 40
254.0
  9
$SKPOLY
 70
     0
  9
$TDCREATE
 40
2453332.6746050352
  9
$TDUPDATE
 40
2311954.5345548261
  9
$TDINDWG
 40
0.0000001736
  9
$TDUSRTIMER
 40
0.0000001736
  9
$USRTIMER
 70
     1
  9
$ANGBASE
 50
0.0
  9
$ANGDIR
 70
     0
  9
$PDMODE
 70
     0
  9
$PDSIZE
 40
0.0
  9
$PLINEWID
 40
0.0
  9
$COORDS
 70
     0
  9
$SPLFRAME
 70
     0
  9
$SPLINETYPE
 70
     6
  9
$SPLINESEGS
 70
     8
  9
$ATTDIA
 70
     0
  9
$ATTREQ
 70
     1
  9
$HANDLING
 70
 12289
  9
$HANDSEED
  5
103
  9
$SURFTAB1
 70
     6
  9
$SURFTAB2
 70
     6
  9
$SURFTYPE
 70
     6
  9
$SURFU
 70
     6
  9
$SURFV
 70
     6
  9
$UCSNAME
  2

  9
$UCSORG
 10
0.0
 20
0.0
 30
0.0
  9
$UCSXDIR
 10
1.0
 20
0.0
 30
0.0
  9
$UCSYDIR
 10
0.0
 20
1.0
 30
0.0
  9
$PUCSNAME
  2

  9
$PUCSORG
 10
0.0
 20
0.0
 30
0.0
  9
$PUCSXDIR
 10
1.0
 20
0.0
 30
0.0
  9
$PUCSYDIR
 10
0.0
 20
1.0
 30
0.0
  9
$USERI1
 70
     0
  9
$USERI2
 70
     0
  9
$USERI3
 70
     0
  9
$USERI4
 70
     0
  9
$USERI5
 70
     0
  9
$USERR1
 40
0.0
  9
$USERR2
 40
0.0
  9
$USERR3
 40
0.0
  9
$USERR4
 40
0.0
  9
$USERR5
 40
0.0
  9
$WORLDVIEW
 70
     1
  9
$SHADEDGE
 70
     3
  9
$SHADEDIF
 70
    70
  9
$TILEMODE
 70
     1
  9
$MAXACTVP
 70
    64
  9
$PLIMCHECK
 70
     0
  9
$PEXTMIN
 10
1.0000000000000000E+020
 20
1.0000000000000000E+020
 30
1.0000000000000000E+020
  9
$PEXTMAX
 10
-1.0000000000000000E+020
 20
-1.0000000000000000E+020
 30
-1.0000000000000000E+020
  9
$PLIMMIN
 10
0.0
 20
0.0
  9
$PLIMMAX
 10
12.0
 20
9.0
  9
$UNITMODE
 70
     0
  9
$VISRETAIN
 70
     1
  9
$PLINEGEN
 70
     0
  9
$PSLTSCALE
 70
     1
  0
ENDSEC
  0
SECTION
  2
TABLES
  0
TABLE
  2
VPORT
 70
     1
  0
VPORT
  2
*ACTIVE
 70
     0
 10
0.0
 20
0.0
 11
1.0
 21
1.0
 12
-1.2742748594410831
 22
18.36668592441821
 13
0.0
 23
0.0
 14
1.0
 24
1.0
 15
0.0
 25
0.0
 16
0.0
 26
0.0
 36
1.0
 17
0.0
 27
0.0
 37
0.0
 40
38.444879770147018
 41
0.459823132173082
 42
50.0
 43
0.0
 44
0.0
 50
0.0
 51
0.0
 71
     0
 72
   100
 73
     1
 74
     1
 75
     0
 76
     0
 77
     0
 78
     0
  0
ENDTAB
  0
TABLE
  2
LTYPE
 70
    47
  0
LTYPE
  2
CONTINUOUS
 70
     0
  3
Solid line
 72
    65
 73
     0
 40
0.0
  0
LTYPE
  2
HIDDEN
 70
     0
  3
_ _ _ _ _ _ _ _ _ _ _ _ _ _ 
 72
    65
 73
     2
 40
0.375
 49
0.25
 49
-0.125
  0
LTYPE
  2
DASHED
 70
     0
  3
__ __ __ __ __ __ __ __ __ 
 72
    65
 73
     2
 40
0.75
 49
0.5
 49
-0.25
  0
LTYPE
  2
CENTER
 70
     0
  3
____ _ ____ _ ____ _ ____ _ 
 72
    65
 73
     4
 40
2.0
 49
1.25
 49
-0.25
 49
0.25
 49
-0.25
  0
LTYPE
  2
PHANTOM
 70
     0
  3
_____ _ _ _____ _ _ _____ _ _ 
 72
    65
 73
     6
 40
2.5
 49
1.25
 49
-0.25
 49
0.25
 49
-0.25
 49
0.25
 49
-0.25
  0
LTYPE
  2
DOT
 70
     0
  3
...........................
 72
    65
 73
     2
 40
0.25
 49
0.0
 49
-0.25
  0
LTYPE
  2
DASHDOT
 70
     0
  3
__ . __ . __ . __ . __ . __ . 
 72
    65
 73
     4
 40
1.0
 49
0.5
 49
-0.25
 49
0.0
 49
-0.25
  0
LTYPE
  2
DIVIDE
 70
     0
  3
__ . . __ . . __ . . __ . . 
 72
    65
 73
     6
 40
1.25
 49
0.5
 49
-0.25
 49
0.0
 49
-0.25
 49
0.0
 49
-0.25
  0
LTYPE
  2
BORDER
 70
     0
  3
__ __ . __ __ . __ __ . __ __ .
 72
    65
 73
     6
 40
1.75
 49
0.5
 49
-0.25
 49
0.5
 49
-0.25
 49
0.0
 49
-0.25
  0
LTYPE
  2
RAND
 70
     0
  3
Rand __ __ . __ __ . __ __ . __
 72
    65
 73
     6
 40
1.75
 49
0.5
 49
-0.25
 49
0.5
 49
-0.25
 49
0.0
 49
-0.25
  0
LTYPE
  2
RAND2
 70
     0
  3
Rand (.5x) __.__.__.__.__.__.__
 72
    65
 73
     6
 40
0.875
 49
0.25
 49
-0.125
 49
0.25
 49
-0.125
 49
0.0
 49
-0.125
  0
LTYPE
  2
RANDX2
 70
     0
  3
Rand (2x) ____  ____  .  ____  
 72
    65
 73
     6
 40
3.5
 49
1.0
 49
-0.5
 49
1.0
 49
-0.5
 49
0.0
 49
-0.5
  0
LTYPE
  2
MITTE
 70
     0
  3
Mitte ____ _ ____ _ ____ _ ____
 72
    65
 73
     4
 40
2.0
 49
1.25
 49
-0.25
 49
0.25
 49
-0.25
  0
LTYPE
  2
MITTE2
 70
     0
  3
Mitte (.5x) ___ _ ___ _ ___ _ _
 72
    65
 73
     4
 40
1.125
 49
0.7500000000000001
 49
-0.125
 49
0.125
 49
-0.125
  0
LTYPE
  2
MITTEX2
 70
     0
  3
Mitte (2x) ________  __  ______
 72
    65
 73
     4
 40
4.0
 49
2.5
 49
-0.5
 49
0.5
 49
-0.5
  0
LTYPE
  2
STRICHPUNKT
 70
     0
  3
Strichpunkt __ . __ . __ . __ .
 72
    65
 73
     4
 40
1.0
 49
0.5
 49
-0.25
 49
0.0
 49
-0.25
  0
LTYPE
  2
STRICHPUNKT2
 70
     0
  3
Strichpunkt (.5x) _._._._._._._
 72
    65
 73
     4
 40
0.5
 49
0.25
 49
-0.125
 49
0.0
 49
-0.125
  0
LTYPE
  2
STRICHPUNKTX2
 70
     0
  3
Strichpunkt (2x) ____  .  ____ 
 72
    65
 73
     4
 40
2.0
 49
1.0
 49
-0.5
 49
0.0
 49
-0.5
  0
LTYPE
  2
STRICHLINIE
 70
     0
  3
Strichlinie __ __ __ __ __ __ _
 72
    65
 73
     2
 40
0.75
 49
0.5
 49
-0.25
  0
LTYPE
  2
STRICHLINIE2
 70
     0
  3
Strichlinie (.5x) _ _ _ _ _ _ _
 72
    65
 73
     2
 40
0.375
 49
0.25
 49
-0.125
  0
LTYPE
  2
STRICHLINIEX2
 70
     0
  3
Strichlinie (2x) ____  ____  __
 72
    65
 73
     2
 40
1.5
 49
1.0
 49
-0.5
  0
LTYPE
  2
GETRENNT
 70
     0
  3
Getrennt ____ . . ____ . . ____
 72
    65
 73
     6
 40
1.25
 49
0.5
 49
-0.25
 49
0.0
 49
-0.25
 49
0.0
 49
-0.25
  0
LTYPE
  2
GETRENNT2
 70
     0
  3
Getrennt (.5x) __..__..__..__..
 72
    65
 73
     6
 40
0.625
 49
0.25
 49
-0.125
 49
0.0
 49
-0.125
 49
0.0
 49
-0.125
  0
LTYPE
  2
GETRENNTX2
 70
     0
  3
Getrennt (2x) ________  .  .  _
 72
    65
 73
     6
 40
2.5
 49
1.0
 49
-0.5
 49
0.0
 49
-0.5
 49
0.0
 49
-0.5
  0
LTYPE
  2
PUNKT
 70
     0
  3
Punkt . . . . . . . . . . . . .
 72
    65
 73
     2
 40
0.25
 49
0.0
 49
-0.25
  0
LTYPE
  2
PUNKT2
 70
     0
  3
Punkt (.5x) ...................
 72
    65
 73
     2
 40
0.125
 49
0.0
 49
-0.125
  0
LTYPE
  2
PUNKTX2
 70
     0
  3
Punkt (2x) .  .  .  .  .  .  . 
 72
    65
 73
     2
 40
0.5
 49
0.0
 49
-0.5
  0
LTYPE
  2
VERDECKT
 70
     0
  3
Verdeckt __ __ __ __ __ __ __ _
 72
    65
 73
     2
 40
0.375
 49
0.25
 49
-0.125
  0
LTYPE
  2
VERDECKT2
 70
     0
  3
Verdeckt (.5x) _ _ _ _ _ _ _ _ 
 72
    65
 73
     2
 40
0.1875
 49
0.125
 49
-0.0625
  0
LTYPE
  2
VERDECKTX2
 70
     0
  3
Verdeckt (2x) ____ ____ ____ __
 72
    65
 73
     2
 40
0.75
 49
0.5
 49
-0.25
  0
LTYPE
  2
PHANTOM2
 70
     0
  3
Phantom (.5x) ___ _ _ ___ _ _ _
 72
    65
 73
     6
 40
1.25
 49
0.6250000000000001
 49
-0.125
 49
0.125
 49
-0.125
 49
0.125
 49
-0.125
  0
LTYPE
  2
PHANTOMX2
 70
     0
  3
Phantom (2x) ____________    __
 72
    65
 73
     6
 40
5.0
 49
2.5
 49
-0.5
 49
0.5
 49
-0.5
 49
0.5
 49
-0.5
  0
LTYPE
  2
PUNKTE
 70
     0
  3
Punkte - - - - - - - - - - - - 
 72
    65
 73
     2
 40
0.1
 49
0.05
 49
-0.05
  0
LTYPE
  2
ACAD_ISO02W100
 70
     0
  3
__ __ __ __ __ __ __ __ __ __ _
 72
    65
 73
     2
 40
15.0
 49
12.0
 49
-3.0
  0
LTYPE
  2
ACAD_ISO03W100
 70
     0
  3
__    __    __    __    __    _
 72
    65
 73
     2
 40
30.0
 49
12.0
 49
-18.0
  0
LTYPE
  2
ACAD_ISO04W100
 70
     0
  3
____ . ____ . ____ . ____ . ___
 72
    65
 73
     4
 40
30.5
 49
24.0
 49
-3.0
 49
0.5
 49
-3.0
  0
LTYPE
  2
ACAD_ISO05W100
 70
     0
  3
____ .. ____ .. ____ .. ____ ..
 72
    65
 73
     6
 40
34.0
 49
24.0
 49
-3.0
 49
0.5
 49
-3.0
 49
0.5
 49
-3.0
  0
LTYPE
  2
ACAD_ISO06W100
 70
     0
  3
____ ... ____ ... ____ ... ____
 72
    65
 73
     6
 40
34.0
 49
24.0
 49
-3.0
 49
0.5
 49
-3.0
 49
0.5
 49
-3.0
  0
LTYPE
  2
ACAD_ISO07W100
 70
     0
  3
. . . . . . . . . . . . . . . .
 72
    65
 73
     2
 40
3.5
 49
0.5
 49
-3.0
  0
LTYPE
  2
ACAD_ISO08W100
 70
     0
  3
____ __ ____ __ ____ __ ____ __
 72
    65
 73
     4
 40
36.0
 49
24.0
 49
-3.0
 49
6.0
 49
-3.0
  0
LTYPE
  2
ACAD_ISO09W100
 70
     0
  3
____ __ __ ____ __ __ ____ __ _
 72
    65
 73
     6
 40
45.0
 49
24.0
 49
-3.0
 49
6.0
 49
-3.0
 49
6.0
 49
-3.0
  0
LTYPE
  2
ACAD_ISO10W100
 70
     0
  3
__ . __ . __ . __ . __ . __ . _
 72
    65
 73
     4
 40
18.5
 49
12.0
 49
-3.0
 49
0.5
 49
-3.0
  0
LTYPE
  2
ACAD_ISO11W100
 70
     0
  3
__ __ . __ __ . __ __ . __ __ .
 72
    65
 73
     6
 40
33.5
 49
12.0
 49
-3.0
 49
12.0
 49
-3.0
 49
0.5
 49
-3.0
  0
LTYPE
  2
ACAD_ISO12W100
 70
     0
  3
__ . . __ . . __ . . __ . . __ 
 72
    65
 73
     6
 40
22.0
 49
12.0
 49
-3.0
 49
0.5
 49
-3.0
 49
0.5
 49
-3.0
  0
LTYPE
  2
ACAD_ISO13W100
 70
     0
  3
__ __ . . __ __ . . __ __ . . _
 72
    65
 73
     6
 40
33.5
 49
12.0
 49
-3.0
 49
12.0
 49
-3.0
 49
0.5
 49
-3.0
  0
LTYPE
  2
ACAD_ISO14W100
 70
     0
  3
__ . . . __ . . . __ . . . __ .
 72
    65
 73
     6
 40
22.0
 49
12.0
 49
-3.0
 49
0.5
 49
-3.0
 49
0.5
 49
-3.0
  0
LTYPE
  2
ACAD_ISO15W100
 70
     0
  3
__ __ . . . __ __ . . . __ __ .
 72
    65
 73
     6
 40
33.5
 49
12.0
 49
-3.0
 49
12.0
 49
-3.0
 49
0.5
 49
-3.0
  0
ENDTAB
  0
TABLE
  2
LAYER
 70
     1
  0
LAYER
  2
0
 70
     0
 62
     7
  6
CONTINUOUS
  0
ENDTAB
  0
TABLE
  2
STYLE
 70
     5
  0
STYLE
  2
STANDARD
 70
     0
 40
0.0
 41
1.0
 50
0.0
 71
     0
 42
0.1331644526946399
  3
txt
  4

  0
STYLE
  2
ITALIC
 70
     0
 40
0.0
 41
1.0
 50
0.0
 71
     0
 42
0.1331644526946399
  3
ITALIC
  4

  0
STYLE
  2
SIMPLEX
 70
     0
 40
0.0
 41
1.0
 50
0.0
 71
     0
 42
0.1331644526946399
  3
SIMPLEX
  4

  0
STYLE
  2
COMPLEX
 70
     0
 40
0.0
 41
1.0
 50
0.0
 71
     0
 42
0.1331644526946399
  3
COMPLEX
  4

  0
STYLE
  2
TXT
 70
     0
 40
0.0
 41
1.0
 50
0.0
 71
     0
 42
0.1331644526946399
  3
txt
  4

  0
ENDTAB
  0
TABLE
  2
VIEW
 70
     0
  0
ENDTAB
  0
TABLE
  2
UCS
 70
     0
  0
ENDTAB
  0
TABLE
  2
APPID
 70
     1
  0
APPID
  2
ACAD
 70
     0
  0
ENDTAB
  0
TABLE
  2
DIMSTYLE
 70
     1
  0
DIMSTYLE
  2
STANDARD
 70
     0
  3

  4

  5

  6

  7

 40
1.0
 41
0.18
 42
0.0625
 43
0.38
 44
0.18
 45
0.0
 46
0.0
 47
0.0
 48
0.0
140
0.18
141
0.09
142
0.0
143
25.399999999999999
144
1.0
145
0.0
146
1.0
147
0.09
 71
     0
 72
     0
 73
     1
 74
     1
 75
     0
 76
     0
 77
     0
 78
     0
170
     0
171
     2
172
     0
173
     0
174
     0
175
     0
176
     0
177
     0
178
     0
  0
ENDTAB
  0
ENDSEC
  0
SECTION
  2
BLOCKS
  0
BLOCK
  8
0
  2
$MODEL_SPACE
 70
     0
 10
0.0
 20
0.0
 30
0.0
  3
$MODEL_SPACE
  1

  0
ENDBLK
  5
21
  8
0
  0
BLOCK
 67
     1
  8
0
  2
$PAPER_SPACE
 70
     0
 10
0.0
 20
0.0
 30
0.0
  3
$PAPER_SPACE
  1

  0
ENDBLK
  5
1D
 67
     1
  8
0
  0
ENDSEC
  0
SECTION
  2
ENTITIES
  0
POLYLINE
  5
59
  8
0
 66
     1
 10
0.0
 20
0.0
 30
0.0
 70
     1
  0
VERTEX
  5
9D
  8
0
 10
-7.9828473789099323
 20
9.6570721446636192
 30
0.0
  0
VERTEX
  5
9E
  8
0
 10
-0.1704905696899903
 20
9.6570721446636192
 30
0.0
  0
VERTEX
  5
9F
  8
0
 10
-0.1704905696899903
 20
35.698261508730077
 30
0.0
  0
VERTEX
  5
A0
  8
0
 10
-7.9828473789099323
 20
35.698261508730077
 30
0.0
  0
SEQEND
  5
A1
  8
0
  0
POLYLINE
  5
5A
  8
0
 66
     1
 10
0.0
 20
0.0
 30
0.0
 70
     1
  0
VERTEX
  5
A2
  8
0
 10
-7.9828473789099323
 20
16.167369485680219
 30
0.0
  0
VERTEX
  5
A3
  8
0
 10
-0.1704905696899903
 20
16.167369485680219
 30
0.0
  0
VERTEX
  5
A4
  8
0
 10
-0.1704905696899903
 20
29.187964167713439
 30
0.0
  0
VERTEX
  5
A5
  8
0
 10
-7.9828473789099323
 20
29.187964167713439
 30
0.0
  0
SEQEND
  5
A6
  8
0
  0
CIRCLE
  5
5B
  8
0
 10
-4.0766689742999613
 20
25.281785763103478
 30
0.0
 40
1.4467327424481351
  0
CIRCLE
  5
5C
  8
0
 10
-4.0766689742999613
 20
11.97184453258062
 30
0.0
 40
1.012712919713695
  0
POLYLINE
  5
5D
  8
0
 62
   252
 66
     1
 10
0.0
 20
0.0
 30
0.0
  0
VERTEX
  5
A7
  8
0
 62
   252
 10
-6.9701344591962382
 20
28.4645977964894
 30
0.0
  0
VERTEX
  5
A8
  8
0
 62
   252
 10
-6.9701344591962382
 20
23.256359923676079
 30
0.0
  0
SEQEND
  5
A9
  8
0
 62
   252
  0
LINE
  5
5E
  8
0
 62
   252
 10
-6.9701344591962382
 20
23.256359923676079
 30
0.0
 11
-7.9828473789099323
 21
23.256359923676079
 31
0.0
  0
LINE
  5
5F
  8
0
 62
   252
 10
-1.183203489403692
 20
23.256359923676079
 30
0.0
 11
-0.1704905696899903
 21
23.256359923676079
 31
0.0
  0
POLYLINE
  5
60
  8
0
 62
   252
 66
     1
 10
0.0
 20
0.0
 30
0.0
  0
VERTEX
  5
AA
  8
0
 62
   252
 10
-1.183203489403692
 20
23.256359923676079
 30
0.0
  0
VERTEX
  5
AB
  8
0
 62
   252
 10
-1.183203489403692
 20
28.4645977964894
 30
0.0
  0
SEQEND
  5
AC
  8
0
 62
   252
  0
POLYLINE
  5
61
  8
0
 62
   252
 66
     1
 10
0.0
 20
0.0
 30
0.0
  0
VERTEX
  5
AD
  8
0
 62
   252
 10
-6.9701344591962382
 20
16.312042759925038
 30
0.0
  0
VERTEX
  5
AE
  8
0
 62
   252
 10
-6.9701344591962382
 20
21.520280632738331
 30
0.0
  0
SEQEND
  5
AF
  8
0
 62
   252
  0
LINE
  5
62
  8
0
 62
   252
 10
-6.9701344591962382
 20
21.520280632738331
 30
0.0
 11
-7.9828473789099323
 21
21.520280632738331
 31
0.0
  0
POLYLINE
  5
63
  8
0
 62
   252
 66
     1
 10
0.0
 20
0.0
 30
0.0
  0
VERTEX
  5
B0
  8
0
 62
   252
 10
-1.183203489403692
 20
21.520280632738331
 30
0.0
  0
VERTEX
  5
B1
  8
0
 62
   252
 10
-1.183203489403692
 20
16.312042759925038
 30
0.0
  0
SEQEND
  5
B2
  8
0
 62
   252
  0
LINE
  5
64
  8
0
 62
   252
 10
-1.183203489403692
 20
21.520280632738331
 30
0.0
 11
-0.1704905696899903
 21
21.520280632738331
 31
0.0
  0
LINE
  5
65
  8
0
 62
   252
 10
-6.9701344591962382
 20
16.312042759925038
 30
0.0
 11
-1.183203489403692
 21
16.312042759925038
 31
0.0
  0
CIRCLE
  5
66
  8
0
 10
-4.0766689742999613
 20
33.38348912081306
 30
0.0
 40
1.012712919713695
  0
POLYLINE
  5
67
  8
0
 62
   252
 66
     1
 10
0.0
 20
0.0
 30
0.0
  0
VERTEX
  5
B3
  8
0
 62
   252
 10
-2.1959164091173839
 20
21.520280632738331
 30
0.0
  0
VERTEX
  5
B4
  8
0
 62
   252
 10
-1.183203489403692
 20
21.520280632738331
 30
0.0
  0
SEQEND
  5
B5
  8
0
 62
   252
  0
ARC
  5
68
  8
0
 62
   252
 10
-1.906569860627757
 20
22.388320278207221
 30
0.0
 40
0.9149942246646812
 50
108.434949
 51
251.5650509999999
  0
POLYLINE
  5
69
  8
0
 62
   252
 66
     1
 10
0.0
 20
0.0
 30
0.0
  0
VERTEX
  5
B6
  8
0
 62
   252
 10
-1.183203489403692
 20
23.256359923676079
 30
0.0
  0
VERTEX
  5
B7
  8
0
 62
   252
 10
-2.1959164091173839
 20
23.256359923676079
 30
0.0
  0
SEQEND
  5
B8
  8
0
 62
   252
  0
ARC
  5
6A
  8
0
 62
   252
 10
-6.2467680879721641
 20
22.388320278207221
 30
0.0
 40
0.9149942246646812
 50
288.43494900000002
 51
71.565050999999997
  0
POLYLINE
  5
6B
  8
0
 62
   252
 66
     1
 10
0.0
 20
0.0
 30
0.0
  0
VERTEX
  5
B9
  8
0
 62
   252
 10
-5.9574215394825361
 20
21.520280632738331
 30
0.0
  0
VERTEX
  5
BA
  8
0
 62
   252
 10
-6.9701344591962382
 20
21.520280632738331
 30
0.0
  0
SEQEND
  5
BB
  8
0
 62
   252
  0
POLYLINE
  5
6C
  8
0
 62
   252
 66
     1
 10
0.0
 20
0.0
 30
0.0
  0
VERTEX
  5
BC
  8
0
 62
   252
 10
-6.9701344591962382
 20
23.256359923676079
 30
0.0
  0
VERTEX
  5
BD
  8
0
 62
   252
 10
-5.9574215394825361
 20
23.256359923676079
 30
0.0
  0
SEQEND
  5
BE
  8
0
 62
   252
  0
TEXT
  5
6E
  8
0
 62
   252
 10
-6.2467680879721632
 20
19.928874616045391
 30
0.0
 40
0.723366371224068
  1
  APS D0
 41
1.55
  7
TXT
 11
-6.2467680879721641
 21
20.652240987269451
 31
0.0
 73
     3
  0
POLYLINE
  5
6F
  8
0
 62
   252
 66
     1
 10
0.0
 20
0.0
 30
0.0
  0
VERTEX
  5
BF
  8
0
 62
   252
 10
6.6291533198162407
 20
23.256359923676079
 30
0.0
  0
VERTEX
  5
C0
  8
0
 62
   252
 10
6.6291533198162407
 20
28.4645977964894
 30
0.0
  0
SEQEND
  5
C1
  8
0
 62
   252
  0
POLYLINE
  5
70
  8
0
 62
   252
 66
     1
 10
0.0
 20
0.0
 30
0.0
  0
VERTEX
  5
C2
  8
0
 62
   252
 10
0.8422223500237029
 20
28.4645977964894
 30
0.0
  0
VERTEX
  5
C3
  8
0
 62
   252
 10
0.8422223500237029
 20
23.256359923676079
 30
0.0
  0
SEQEND
  5
C4
  8
0
 62
   252
  0
CIRCLE
  5
71
  8
0
 10
3.7356878349199718
 20
25.281785763103478
 30
0.0
 40
1.4467327424481351
  0
POLYLINE
  5
72
  8
0
 66
     1
 10
0.0
 20
0.0
 30
0.0
 70
     1
  0
VERTEX
  5
C5
  8
0
 10
-0.1704905696899903
 20
16.167369485680219
 30
0.0
  0
VERTEX
  5
C6
  8
0
 10
7.6418662395299419
 20
16.167369485680219
 30
0.0
  0
VERTEX
  5
C7
  8
0
 10
7.6418662395299419
 20
29.187964167713439
 30
0.0
  0
VERTEX
  5
C8
  8
0
 10
-0.1704905696899903
 20
29.187964167713439
 30
0.0
  0
SEQEND
  5
C9
  8
0
  0
POLYLINE
  5
73
  8
0
 66
     1
 10
0.0
 20
0.0
 30
0.0
 70
     1
  0
VERTEX
  5
CA
  8
0
 10
-0.1704905696899903
 20
9.6570721446636192
 30
0.0
  0
VERTEX
  5
CB
  8
0
 10
7.6418662395299419
 20
9.6570721446636192
 30
0.0
  0
VERTEX
  5
CC
  8
0
 10
7.6418662395299419
 20
35.698261508730077
 30
0.0
  0
VERTEX
  5
CD
  8
0
 10
-0.1704905696899903
 20
35.698261508730077
 30
0.0
  0
SEQEND
  5
CE
  8
0
  0
LINE
  5
74
  8
0
 62
   252
 10
0.8422223500237029
 20
16.312042759925038
 30
0.0
 11
6.6291533198162407
 21
16.312042759925038
 31
0.0
  0
CIRCLE
  5
75
  8
0
 10
3.7356878349199718
 20
11.97184453258062
 30
0.0
 40
1.012712919713695
  0
POLYLINE
  5
76
  8
0
 62
   252
 66
     1
 10
0.0
 20
0.0
 30
0.0
  0
VERTEX
  5
CF
  8
0
 62
   252
 10
0.8422223500237029
 20
16.312042759925038
 30
0.0
  0
VERTEX
  5
D0
  8
0
 62
   252
 10
0.8422223500237029
 20
21.520280632738331
 30
0.0
  0
SEQEND
  5
D1
  8
0
 62
   252
  0
ARC
  5
77
  8
0
 62
   252
 10
1.5655887212477679
 20
22.388320278207221
 30
0.0
 40
0.9149942246646812
 50
288.43494900000002
 51
71.565050999999997
  0
POLYLINE
  5
78
  8
0
 62
   252
 66
     1
 10
0.0
 20
0.0
 30
0.0
  0
VERTEX
  5
D2
  8
0
 62
   252
 10
1.854935269737396
 20
21.520280632738331
 30
0.0
  0
VERTEX
  5
D3
  8
0
 62
   252
 10
0.8422223500237029
 20
21.520280632738331
 30
0.0
  0
SEQEND
  5
D4
  8
0
 62
   252
  0
LINE
  5
79
  8
0
 62
   252
 10
0.8422223500237029
 20
21.520280632738331
 30
0.0
 11
-0.1704905696899903
 21
21.520280632738331
 31
0.0
  0
POLYLINE
  5
7A
  8
0
 62
   252
 66
     1
 10
0.0
 20
0.0
 30
0.0
  0
VERTEX
  5
D5
  8
0
 62
   252
 10
0.8422223500237029
 20
23.256359923676079
 30
0.0
  0
VERTEX
  5
D6
  8
0
 62
   252
 10
1.854935269737396
 20
23.256359923676079
 30
0.0
  0
SEQEND
  5
D7
  8
0
 62
   252
  0
LINE
  5
7B
  8
0
 62
   252
 10
0.8422223500237029
 20
23.256359923676079
 30
0.0
 11
-0.1704905696899903
 21
23.256359923676079
 31
0.0
  0
POLYLINE
  5
7C
  8
0
 62
   252
 66
     1
 10
0.0
 20
0.0
 30
0.0
  0
VERTEX
  5
D8
  8
0
 62
   252
 10
6.6291533198162407
 20
21.520280632738331
 30
0.0
  0
VERTEX
  5
D9
  8
0
 62
   252
 10
6.6291533198162407
 20
16.312042759925038
 30
0.0
  0
SEQEND
  5
DA
  8
0
 62
   252
  0
ARC
  5
7D
  8
0
 62
   252
 10
5.9057869485921852
 20
22.388320278207221
 30
0.0
 40
0.9149942246646812
 50
108.434949
 51
251.5650509999999
  0
POLYLINE
  5
7E
  8
0
 62
   252
 66
     1
 10
0.0
 20
0.0
 30
0.0
  0
VERTEX
  5
DB
  8
0
 62
   252
 10
5.6164404001025581
 20
21.520280632738331
 30
0.0
  0
VERTEX
  5
DC
  8
0
 62
   252
 10
6.6291533198162407
 20
21.520280632738331
 30
0.0
  0
SEQEND
  5
DD
  8
0
 62
   252
  0
LINE
  5
7F
  8
0
 62
   252
 10
6.6291533198162407
 20
21.520280632738331
 30
0.0
 11
7.6418662395299419
 21
21.520280632738331
 31
0.0
  0
POLYLINE
  5
80
  8
0
 62
   252
 66
     1
 10
0.0
 20
0.0
 30
0.0
  0
VERTEX
  5
DE
  8
0
 62
   252
 10
6.6291533198162407
 20
23.256359923676079
 30
0.0
  0
VERTEX
  5
DF
  8
0
 62
   252
 10
5.6164404001025581
 20
23.256359923676079
 30
0.0
  0
SEQEND
  5
E0
  8
0
 62
   252
  0
LINE
  5
81
  8
0
 62
   252
 10
6.6291533198162407
 20
23.256359923676079
 30
0.0
 11
7.6418662395299419
 21
23.256359923676079
 31
0.0
  0
CIRCLE
  5
82
  8
0
 10
3.7356878349199718
 20
33.38348912081306
 30
0.0
 40
1.012712919713695
  0
POLYLINE
  5
83
  8
0
 66
     1
 10
0.0
 20
0.0
 30
0.0
 70
     1
  0
VERTEX
  5
E1
  8
0
 10
7.6418662395299419
 20
9.6570721446636192
 30
0.0
  0
VERTEX
  5
E2
  8
0
 10
15.45422304874988
 20
9.6570721446636192
 30
0.0
  0
VERTEX
  5
E3
  8
0
 10
15.45422304874988
 20
35.698261508730077
 30
0.0
  0
VERTEX
  5
E4
  8
0
 10
7.6418662395299419
 20
35.698261508730077
 30
0.0
  0
SEQEND
  5
E5
  8
0
  0
POLYLINE
  5
84
  8
0
 66
     1
 10
0.0
 20
0.0
 30
0.0
 70
     1
  0
VERTEX
  5
E6
  8
0
 10
7.6418662395299419
 20
16.167369485680219
 30
0.0
  0
VERTEX
  5
E7
  8
0
 10
15.45422304874988
 20
16.167369485680219
 30
0.0
  0
VERTEX
  5
E8
  8
0
 10
15.45422304874988
 20
29.187964167713439
 30
0.0
  0
VERTEX
  5
E9
  8
0
 10
7.6418662395299419
 20
29.187964167713439
 30
0.0
  0
SEQEND
  5
EA
  8
0
  0
CIRCLE
  5
85
  8
0
 10
11.54804464413991
 20
25.281785763103478
 30
0.0
 40
1.4467327424481351
  0
POLYLINE
  5
86
  8
0
 62
   252
 66
     1
 10
0.0
 20
0.0
 30
0.0
  0
VERTEX
  5
EB
  8
0
 62
   252
 10
8.6545791592436441
 20
28.4645977964894
 30
0.0
  0
VERTEX
  5
EC
  8
0
 62
   252
 10
8.6545791592436441
 20
23.256359923676079
 30
0.0
  0
SEQEND
  5
ED
  8
0
 62
   252
  0
POLYLINE
  5
87
  8
0
 62
   252
 66
     1
 10
0.0
 20
0.0
 30
0.0
  0
VERTEX
  5
EE
  8
0
 62
   252
 10
14.44151012903618
 20
23.256359923676079
 30
0.0
  0
VERTEX
  5
EF
  8
0
 62
   252
 10
14.44151012903618
 20
28.4645977964894
 30
0.0
  0
SEQEND
  5
F0
  8
0
 62
   252
  0
CIRCLE
  5
88
  8
0
 10
11.54804464413991
 20
11.97184453258062
 30
0.0
 40
1.012712919713695
  0
ARC
  5
89
  8
0
 62
   252
 10
13.71814375781212
 20
22.388320278207221
 30
0.0
 40
0.9149942246646812
 50
108.434949
 51
251.5650509999999
  0
LINE
  5
8A
  8
0
 62
   252
 10
8.6545791592436441
 20
16.312042759925038
 30
0.0
 11
14.44151012903618
 21
16.312042759925038
 31
0.0
  0
POLYLINE
  5
8B
  8
0
 62
   252
 66
     1
 10
0.0
 20
0.0
 30
0.0
  0
VERTEX
  5
F1
  8
0
 62
   252
 10
8.6545791592436441
 20
16.312042759925038
 30
0.0
  0
VERTEX
  5
F2
  8
0
 62
   252
 10
8.6545791592436441
 20
21.520280632738331
 30
0.0
  0
SEQEND
  5
F3
  8
0
 62
   252
  0
LINE
  5
8C
  8
0
 62
   252
 10
8.6545791592436441
 20
23.256359923676079
 30
0.0
 11
7.6418662395299419
 21
23.256359923676079
 31
0.0
  0
LINE
  5
8D
  8
0
 62
   252
 10
8.6545791592436441
 20
21.520280632738331
 30
0.0
 11
7.6418662395299419
 21
21.520280632738331
 31
0.0
  0
ARC
  5
8E
  8
0
 62
   252
 10
9.3779455304677022
 20
22.388320278207221
 30
0.0
 40
0.9149942246646812
 50
288.43494900000002
 51
71.565050999999997
  0
POLYLINE
  5
8F
  8
0
 62
   252
 66
     1
 10
0.0
 20
0.0
 30
0.0
  0
VERTEX
  5
F4
  8
0
 62
   252
 10
9.6672920789573471
 20
21.520280632738331
 30
0.0
  0
VERTEX
  5
F5
  8
0
 62
   252
 10
8.6545791592436441
 20
21.520280632738331
 30
0.0
  0
SEQEND
  5
F6
  8
0
 62
   252
  0
POLYLINE
  5
90
  8
0
 62
   252
 66
     1
 10
0.0
 20
0.0
 30
0.0
  0
VERTEX
  5
F7
  8
0
 62
   252
 10
8.6545791592436441
 20
23.256359923676079
 30
0.0
  0
VERTEX
  5
F8
  8
0
 62
   252
 10
9.6672920789573471
 20
23.256359923676079
 30
0.0
  0
SEQEND
  5
F9
  8
0
 62
   252
  0
POLYLINE
  5
91
  8
0
 62
   252
 66
     1
 10
0.0
 20
0.0
 30
0.0
  0
VERTEX
  5
FA
  8
0
 62
   252
 10
14.44151012903618
 20
21.520280632738331
 30
0.0
  0
VERTEX
  5
FB
  8
0
 62
   252
 10
14.44151012903618
 20
16.312042759925038
 30
0.0
  0
SEQEND
  5
FC
  8
0
 62
   252
  0
POLYLINE
  5
92
  8
0
 62
   252
 66
     1
 10
0.0
 20
0.0
 30
0.0
  0
VERTEX
  5
FD
  8
0
 62
   252
 10
13.428797209322489
 20
21.520280632738331
 30
0.0
  0
VERTEX
  5
FE
  8
0
 62
   252
 10
14.44151012903618
 20
21.520280632738331
 30
0.0
  0
SEQEND
  5
FF
  8
0
 62
   252
  0
LINE
  5
93
  8
0
 62
   252
 10
14.44151012903618
 20
21.520280632738331
 30
0.0
 11
15.45422304874988
 21
21.520280632738331
 31
0.0
  0
POLYLINE
  5
94
  8
0
 62
   252
 66
     1
 10
0.0
 20
0.0
 30
0.0
  0
VERTEX
  5
100
  8
0
 62
   252
 10
14.44151012903618
 20
23.256359923676079
 30
0.0
  0
VERTEX
  5
101
  8
0
 62
   252
 10
13.428797209322489
 20
23.256359923676079
 30
0.0
  0
SEQEND
  5
102
  8
0
 62
   252
  0
LINE
  5
95
  8
0
 62
   252
 10
14.44151012903618
 20
23.256359923676079
 30
0.0
 11
15.45422304874988
 21
23.256359923676079
 31
0.0
  0
CIRCLE
  5
96
  8
0
 10
11.54804464413991
 20
33.38348912081306
 30
0.0
 40
1.012712919713695
  0
ENDSEC
  0
EOF
