  0
SECTION
  2
HEADER
  9
$ACADVER
  1
AC1009
  9
$INSBASE
 10
0.0
 20
0.0
 30
0.0
  9
$EXTMIN
 10
-8.5984869029920947
 20
11.785670040436671
 30
-0.00000001
  9
$EXTMAX
 10
16.52052449643212
 20
32.718179539956878
 30
0.00000001
  9
$LIMMIN
 10
-10.11319737540436
 20
-0.8557539606552989
  9
$LIMMAX
 10
17.677845031926559
 20
38.444879770147018
  9
$ORTHOMODE
 70
     0
  9
$REGENMODE
 70
     1
  9
$FILLMODE
 70
     1
  9
$QTEXTMODE
 70
     0
  9
$MIRRTEXT
 70
     1
  9
$DRAGMODE
 70
     2
  9
$LTSCALE
 40
1.0
  9
$OSMODE
 70
     0
  9
$ATTMODE
 70
     1
  9
$TEXTSIZE
 40
0.1775526035928532
  9
$TRACEWID
 40
0.05
  9
$TEXTSTYLE
  7
STANDARD
  9
$CLAYER
  8
0
  9
$CELTYPE
  6
BYLAYER
  9
$CECOLOR
 62
   252
  9
$DIMSCALE
 40
1.0
  9
$DIMASZ
 40
0.18
  9
$DIMEXO
 40
0.0625
  9
$DIMDLI
 40
0.38
  9
$DIMRND
 40
0.0
  9
$DIMDLE
 40
0.0
  9
$DIMEXE
 40
0.18
  9
$DIMTP
 40
0.0
  9
$DIMTM
 40
0.0
  9
$DIMTXT
 40
0.5292070267703383
  9
$DIMCEN
 40
0.09
  9
$DIMTSZ
 40
0.0
  9
$DIMTOL
 70
     0
  9
$DIMLIM
 70
     0
  9
$DIMTIH
 70
     1
  9
$DIMTOH
 70
     1
  9
$DIMSE1
 70
     0
  9
$DIMSE2
 70
     0
  9
$DIMTAD
 70
     0
  9
$DIMZIN
 70
     0
  9
$DIMBLK
  1

  9
$DIMASO
 70
     1
  9
$DIMSHO
 70
     1
  9
$DIMPOST
  1

  9
$DIMAPOST
  1

  9
$DIMALT
 70
     0
  9
$DIMALTD
 70
     2
  9
$DIMALTF
 40
25.399999999999999
  9
$DIMLFAC
 40
1.0
  9
$DIMTOFL
 70
     0
  9
$DIMTVP
 40
0.0
  9
$DIMTIX
 70
     0
  9
$DIMSOXD
 70
     0
  9
$DIMSAH
 70
     0
  9
$DIMBLK1
  1

  9
$DIMBLK2
  1

  9
$DIMSTYLE
  2
STANDARD
  9
$DIMCLRD
 70
     0
  9
$DIMCLRE
 70
     0
  9
$DIMCLRT
 70
     0
  9
$DIMTFAC
 40
1.0
  9
$DIMGAP
 40
0.09
  9
$LUNITS
 70
     2
  9
$LUPREC
 70
     4
  9
$SKETCHINC
 40
0.1
  9
$FILLETRAD
 40
254.0
  9
$AUNITS
 70
     0
  9
$AUPREC
 70
     0
  9
$MENU
  1
.
  9
$ELEVATION
 40
0.0
  9
$PELEVATION
 40
0.0
  9
$THICKNESS
 40
0.0
  9
$LIMCHECK
 70
     0
  9
$BLIPMODE
 70
     0
  9
$CHAMFERA
 40
254.0
  9
$CHAMFERB
 40
254.0
  9
$SKPOLY
 70
     0
  9
$TDCREATE
 40
2453332.6671477081
  9
$TDUPDATE
 40
2311954.5345548261
  9
$TDINDWG
 40
0.0000001852
  9
$TDUSRTIMER
 40
0.0000001852
  9
$USRTIMER
 70
     1
  9
$ANGBASE
 50
0.0
  9
$ANGDIR
 70
     0
  9
$PDMODE
 70
     0
  9
$PDSIZE
 40
0.0
  9
$PLINEWID
 40
0.0
  9
$COORDS
 70
     0
  9
$SPLFRAME
 70
     0
  9
$SPLINETYPE
 70
     6
  9
$SPLINESEGS
 70
     8
  9
$ATTDIA
 70
     0
  9
$ATTREQ
 70
     1
  9
$HANDLING
 70
 12289
  9
$HANDSEED
  5
13B
  9
$SURFTAB1
 70
     6
  9
$SURFTAB2
 70
     6
  9
$SURFTYPE
 70
     6
  9
$SURFU
 70
     6
  9
$SURFV
 70
     6
  9
$UCSNAME
  2

  9
$UCSORG
 10
0.0
 20
0.0
 30
0.0
  9
$UCSXDIR
 10
1.0
 20
0.0
 30
0.0
  9
$UCSYDIR
 10
0.0
 20
1.0
 30
0.0
  9
$PUCSNAME
  2

  9
$PUCSORG
 10
0.0
 20
0.0
 30
0.0
  9
$PUCSXDIR
 10
1.0
 20
0.0
 30
0.0
  9
$PUCSYDIR
 10
0.0
 20
1.0
 30
0.0
  9
$USERI1
 70
     0
  9
$USERI2
 70
     0
  9
$USERI3
 70
     0
  9
$USERI4
 70
     0
  9
$USERI5
 70
     0
  9
$USERR1
 40
0.0
  9
$USERR2
 40
0.0
  9
$USERR3
 40
0.0
  9
$USERR4
 40
0.0
  9
$USERR5
 40
0.0
  9
$WORLDVIEW
 70
     1
  9
$SHADEDGE
 70
     3
  9
$SHADEDIF
 70
    70
  9
$TILEMODE
 70
     1
  9
$MAXACTVP
 70
    64
  9
$PLIMCHECK
 70
     0
  9
$PEXTMIN
 10
1.0000000000000000E+020
 20
1.0000000000000000E+020
 30
1.0000000000000000E+020
  9
$PEXTMAX
 10
-1.0000000000000000E+020
 20
-1.0000000000000000E+020
 30
-1.0000000000000000E+020
  9
$PLIMMIN
 10
0.0
 20
0.0
  9
$PLIMMAX
 10
12.0
 20
9.0
  9
$UNITMODE
 70
     0
  9
$VISRETAIN
 70
     1
  9
$PLINEGEN
 70
     0
  9
$PSLTSCALE
 70
     1
  0
ENDSEC
  0
SECTION
  2
TABLES
  0
TABLE
  2
VPORT
 70
     1
  0
VPORT
  2
*ACTIVE
 70
     0
 10
0.0
 20
0.0
 11
1.0
 21
1.0
 12
-1.2742748594410831
 22
18.36668592441821
 13
0.0
 23
0.0
 14
1.0
 24
1.0
 15
0.0
 25
0.0
 16
0.0
 26
0.0
 36
1.0
 17
0.0
 27
0.0
 37
0.0
 40
38.444879770147018
 41
0.459823132173082
 42
50.0
 43
0.0
 44
0.0
 50
0.0
 51
0.0
 71
     0
 72
   100
 73
     1
 74
     1
 75
     0
 76
     0
 77
     0
 78
     0
  0
ENDTAB
  0
TABLE
  2
LTYPE
 70
    47
  0
LTYPE
  2
CONTINUOUS
 70
     0
  3
Solid line
 72
    65
 73
     0
 40
0.0
  0
LTYPE
  2
HIDDEN
 70
     0
  3
_ _ _ _ _ _ _ _ _ _ _ _ _ _ 
 72
    65
 73
     2
 40
0.375
 49
0.25
 49
-0.125
  0
LTYPE
  2
DASHED
 70
     0
  3
__ __ __ __ __ __ __ __ __ 
 72
    65
 73
     2
 40
0.75
 49
0.5
 49
-0.25
  0
LTYPE
  2
CENTER
 70
     0
  3
____ _ ____ _ ____ _ ____ _ 
 72
    65
 73
     4
 40
2.0
 49
1.25
 49
-0.25
 49
0.25
 49
-0.25
  0
LTYPE
  2
PHANTOM
 70
     0
  3
_____ _ _ _____ _ _ _____ _ _ 
 72
    65
 73
     6
 40
2.5
 49
1.25
 49
-0.25
 49
0.25
 49
-0.25
 49
0.25
 49
-0.25
  0
LTYPE
  2
DOT
 70
     0
  3
...........................
 72
    65
 73
     2
 40
0.25
 49
0.0
 49
-0.25
  0
LTYPE
  2
DASHDOT
 70
     0
  3
__ . __ . __ . __ . __ . __ . 
 72
    65
 73
     4
 40
1.0
 49
0.5
 49
-0.25
 49
0.0
 49
-0.25
  0
LTYPE
  2
DIVIDE
 70
     0
  3
__ . . __ . . __ . . __ . . 
 72
    65
 73
     6
 40
1.25
 49
0.5
 49
-0.25
 49
0.0
 49
-0.25
 49
0.0
 49
-0.25
  0
LTYPE
  2
BORDER
 70
     0
  3
__ __ . __ __ . __ __ . __ __ .
 72
    65
 73
     6
 40
1.75
 49
0.5
 49
-0.25
 49
0.5
 49
-0.25
 49
0.0
 49
-0.25
  0
LTYPE
  2
RAND
 70
     0
  3
Rand __ __ . __ __ . __ __ . __
 72
    65
 73
     6
 40
1.75
 49
0.5
 49
-0.25
 49
0.5
 49
-0.25
 49
0.0
 49
-0.25
  0
LTYPE
  2
RAND2
 70
     0
  3
Rand (.5x) __.__.__.__.__.__.__
 72
    65
 73
     6
 40
0.875
 49
0.25
 49
-0.125
 49
0.25
 49
-0.125
 49
0.0
 49
-0.125
  0
LTYPE
  2
RANDX2
 70
     0
  3
Rand (2x) ____  ____  .  ____  
 72
    65
 73
     6
 40
3.5
 49
1.0
 49
-0.5
 49
1.0
 49
-0.5
 49
0.0
 49
-0.5
  0
LTYPE
  2
MITTE
 70
     0
  3
Mitte ____ _ ____ _ ____ _ ____
 72
    65
 73
     4
 40
2.0
 49
1.25
 49
-0.25
 49
0.25
 49
-0.25
  0
LTYPE
  2
MITTE2
 70
     0
  3
Mitte (.5x) ___ _ ___ _ ___ _ _
 72
    65
 73
     4
 40
1.125
 49
0.7500000000000001
 49
-0.125
 49
0.125
 49
-0.125
  0
LTYPE
  2
MITTEX2
 70
     0
  3
Mitte (2x) ________  __  ______
 72
    65
 73
     4
 40
4.0
 49
2.5
 49
-0.5
 49
0.5
 49
-0.5
  0
LTYPE
  2
STRICHPUNKT
 70
     0
  3
Strichpunkt __ . __ . __ . __ .
 72
    65
 73
     4
 40
1.0
 49
0.5
 49
-0.25
 49
0.0
 49
-0.25
  0
LTYPE
  2
STRICHPUNKT2
 70
     0
  3
Strichpunkt (.5x) _._._._._._._
 72
    65
 73
     4
 40
0.5
 49
0.25
 49
-0.125
 49
0.0
 49
-0.125
  0
LTYPE
  2
STRICHPUNKTX2
 70
     0
  3
Strichpunkt (2x) ____  .  ____ 
 72
    65
 73
     4
 40
2.0
 49
1.0
 49
-0.5
 49
0.0
 49
-0.5
  0
LTYPE
  2
STRICHLINIE
 70
     0
  3
Strichlinie __ __ __ __ __ __ _
 72
    65
 73
     2
 40
0.75
 49
0.5
 49
-0.25
  0
LTYPE
  2
STRICHLINIE2
 70
     0
  3
Strichlinie (.5x) _ _ _ _ _ _ _
 72
    65
 73
     2
 40
0.375
 49
0.25
 49
-0.125
  0
LTYPE
  2
STRICHLINIEX2
 70
     0
  3
Strichlinie (2x) ____  ____  __
 72
    65
 73
     2
 40
1.5
 49
1.0
 49
-0.5
  0
LTYPE
  2
GETRENNT
 70
     0
  3
Getrennt ____ . . ____ . . ____
 72
    65
 73
     6
 40
1.25
 49
0.5
 49
-0.25
 49
0.0
 49
-0.25
 49
0.0
 49
-0.25
  0
LTYPE
  2
GETRENNT2
 70
     0
  3
Getrennt (.5x) __..__..__..__..
 72
    65
 73
     6
 40
0.625
 49
0.25
 49
-0.125
 49
0.0
 49
-0.125
 49
0.0
 49
-0.125
  0
LTYPE
  2
GETRENNTX2
 70
     0
  3
Getrennt (2x) ________  .  .  _
 72
    65
 73
     6
 40
2.5
 49
1.0
 49
-0.5
 49
0.0
 49
-0.5
 49
0.0
 49
-0.5
  0
LTYPE
  2
PUNKT
 70
     0
  3
Punkt . . . . . . . . . . . . .
 72
    65
 73
     2
 40
0.25
 49
0.0
 49
-0.25
  0
LTYPE
  2
PUNKT2
 70
     0
  3
Punkt (.5x) ...................
 72
    65
 73
     2
 40
0.125
 49
0.0
 49
-0.125
  0
LTYPE
  2
PUNKTX2
 70
     0
  3
Punkt (2x) .  .  .  .  .  .  . 
 72
    65
 73
     2
 40
0.5
 49
0.0
 49
-0.5
  0
LTYPE
  2
VERDECKT
 70
     0
  3
Verdeckt __ __ __ __ __ __ __ _
 72
    65
 73
     2
 40
0.375
 49
0.25
 49
-0.125
  0
LTYPE
  2
VERDECKT2
 70
     0
  3
Verdeckt (.5x) _ _ _ _ _ _ _ _ 
 72
    65
 73
     2
 40
0.1875
 49
0.125
 49
-0.0625
  0
LTYPE
  2
VERDECKTX2
 70
     0
  3
Verdeckt (2x) ____ ____ ____ __
 72
    65
 73
     2
 40
0.75
 49
0.5
 49
-0.25
  0
LTYPE
  2
PHANTOM2
 70
     0
  3
Phantom (.5x) ___ _ _ ___ _ _ _
 72
    65
 73
     6
 40
1.25
 49
0.6250000000000001
 49
-0.125
 49
0.125
 49
-0.125
 49
0.125
 49
-0.125
  0
LTYPE
  2
PHANTOMX2
 70
     0
  3
Phantom (2x) ____________    __
 72
    65
 73
     6
 40
5.0
 49
2.5
 49
-0.5
 49
0.5
 49
-0.5
 49
0.5
 49
-0.5
  0
LTYPE
  2
PUNKTE
 70
     0
  3
Punkte - - - - - - - - - - - - 
 72
    65
 73
     2
 40
0.1
 49
0.05
 49
-0.05
  0
LTYPE
  2
ACAD_ISO02W100
 70
     0
  3
__ __ __ __ __ __ __ __ __ __ _
 72
    65
 73
     2
 40
15.0
 49
12.0
 49
-3.0
  0
LTYPE
  2
ACAD_ISO03W100
 70
     0
  3
__    __    __    __    __    _
 72
    65
 73
     2
 40
30.0
 49
12.0
 49
-18.0
  0
LTYPE
  2
ACAD_ISO04W100
 70
     0
  3
____ . ____ . ____ . ____ . ___
 72
    65
 73
     4
 40
30.5
 49
24.0
 49
-3.0
 49
0.5
 49
-3.0
  0
LTYPE
  2
ACAD_ISO05W100
 70
     0
  3
____ .. ____ .. ____ .. ____ ..
 72
    65
 73
     6
 40
34.0
 49
24.0
 49
-3.0
 49
0.5
 49
-3.0
 49
0.5
 49
-3.0
  0
LTYPE
  2
ACAD_ISO06W100
 70
     0
  3
____ ... ____ ... ____ ... ____
 72
    65
 73
     6
 40
34.0
 49
24.0
 49
-3.0
 49
0.5
 49
-3.0
 49
0.5
 49
-3.0
  0
LTYPE
  2
ACAD_ISO07W100
 70
     0
  3
. . . . . . . . . . . . . . . .
 72
    65
 73
     2
 40
3.5
 49
0.5
 49
-3.0
  0
LTYPE
  2
ACAD_ISO08W100
 70
     0
  3
____ __ ____ __ ____ __ ____ __
 72
    65
 73
     4
 40
36.0
 49
24.0
 49
-3.0
 49
6.0
 49
-3.0
  0
LTYPE
  2
ACAD_ISO09W100
 70
     0
  3
____ __ __ ____ __ __ ____ __ _
 72
    65
 73
     6
 40
45.0
 49
24.0
 49
-3.0
 49
6.0
 49
-3.0
 49
6.0
 49
-3.0
  0
LTYPE
  2
ACAD_ISO10W100
 70
     0
  3
__ . __ . __ . __ . __ . __ . _
 72
    65
 73
     4
 40
18.5
 49
12.0
 49
-3.0
 49
0.5
 49
-3.0
  0
LTYPE
  2
ACAD_ISO11W100
 70
     0
  3
__ __ . __ __ . __ __ . __ __ .
 72
    65
 73
     6
 40
33.5
 49
12.0
 49
-3.0
 49
12.0
 49
-3.0
 49
0.5
 49
-3.0
  0
LTYPE
  2
ACAD_ISO12W100
 70
     0
  3
__ . . __ . . __ . . __ . . __ 
 72
    65
 73
     6
 40
22.0
 49
12.0
 49
-3.0
 49
0.5
 49
-3.0
 49
0.5
 49
-3.0
  0
LTYPE
  2
ACAD_ISO13W100
 70
     0
  3
__ __ . . __ __ . . __ __ . . _
 72
    65
 73
     6
 40
33.5
 49
12.0
 49
-3.0
 49
12.0
 49
-3.0
 49
0.5
 49
-3.0
  0
LTYPE
  2
ACAD_ISO14W100
 70
     0
  3
__ . . . __ . . . __ . . . __ .
 72
    65
 73
     6
 40
22.0
 49
12.0
 49
-3.0
 49
0.5
 49
-3.0
 49
0.5
 49
-3.0
  0
LTYPE
  2
ACAD_ISO15W100
 70
     0
  3
__ __ . . . __ __ . . . __ __ .
 72
    65
 73
     6
 40
33.5
 49
12.0
 49
-3.0
 49
12.0
 49
-3.0
 49
0.5
 49
-3.0
  0
ENDTAB
  0
TABLE
  2
LAYER
 70
     1
  0
LAYER
  2
0
 70
     0
 62
     7
  6
CONTINUOUS
  0
ENDTAB
  0
TABLE
  2
STYLE
 70
     5
  0
STYLE
  2
STANDARD
 70
     0
 40
0.0
 41
1.0
 50
0.0
 71
     0
 42
0.1775526035928532
  3
txt
  4

  0
STYLE
  2
ITALIC
 70
     0
 40
0.0
 41
1.0
 50
0.0
 71
     0
 42
0.1775526035928532
  3
ITALIC
  4

  0
STYLE
  2
SIMPLEX
 70
     0
 40
0.0
 41
1.0
 50
0.0
 71
     0
 42
0.1775526035928532
  3
SIMPLEX
  4

  0
STYLE
  2
COMPLEX
 70
     0
 40
0.0
 41
1.0
 50
0.0
 71
     0
 42
0.1775526035928532
  3
COMPLEX
  4

  0
STYLE
  2
TXT
 70
     0
 40
0.0
 41
1.0
 50
0.0
 71
     0
 42
0.1775526035928532
  3
txt
  4

  0
ENDTAB
  0
TABLE
  2
VIEW
 70
     0
  0
ENDTAB
  0
TABLE
  2
UCS
 70
     0
  0
ENDTAB
  0
TABLE
  2
APPID
 70
     1
  0
APPID
  2
ACAD
 70
     0
  0
ENDTAB
  0
TABLE
  2
DIMSTYLE
 70
     1
  0
DIMSTYLE
  2
STANDARD
 70
     0
  3

  4

  5

  6

  7

 40
1.0
 41
0.18
 42
0.0625
 43
0.38
 44
0.18
 45
0.0
 46
0.0
 47
0.0
 48
0.0
140
0.18
141
0.09
142
0.0
143
25.399999999999999
144
1.0
145
0.0
146
1.0
147
0.09
 71
     0
 72
     0
 73
     1
 74
     1
 75
     0
 76
     0
 77
     0
 78
     0
170
     0
171
     2
172
     0
173
     0
174
     0
175
     0
176
     0
177
     0
178
     0
  0
ENDTAB
  0
ENDSEC
  0
SECTION
  2
BLOCKS
  0
BLOCK
  8
0
  2
$MODEL_SPACE
 70
     0
 10
0.0
 20
0.0
 30
0.0
  3
$MODEL_SPACE
  1

  0
ENDBLK
  5
21
  8
0
  0
BLOCK
 67
     1
  8
0
  2
$PAPER_SPACE
 70
     0
 10
0.0
 20
0.0
 30
0.0
  3
$PAPER_SPACE
  1

  0
ENDBLK
  5
1D
 67
     1
  8
0
  0
ENDSEC
  0
SECTION
  2
ENTITIES
  0
POLYLINE
  5
59
  8
0
 66
     1
 10
0.0
 20
0.0
 30
0.0
 70
     1
  0
VERTEX
  5
B3
  8
0
 10
-8.5984869029920947
 20
11.785670040436671
 30
0.0
  0
VERTEX
  5
B4
  8
0
 10
-2.3187340531360352
 20
11.785670040436671
 30
0.0
  0
VERTEX
  5
B5
  8
0
 10
-2.3187340531360352
 20
32.718179539956878
 30
0.0
  0
VERTEX
  5
B6
  8
0
 10
-8.5984869029920947
 20
32.718179539956878
 30
0.0
  0
SEQEND
  5
B7
  8
0
  0
POLYLINE
  5
5A
  8
0
 66
     1
 10
0.0
 20
0.0
 30
0.0
 70
     1
  0
VERTEX
  5
B8
  8
0
 10
-8.5984869029920947
 20
17.018797415316719
 30
0.0
  0
VERTEX
  5
B9
  8
0
 10
-2.3187340531360352
 20
17.018797415316719
 30
0.0
  0
VERTEX
  5
BA
  8
0
 10
-2.3187340531360352
 20
27.485052165076819
 30
0.0
  0
VERTEX
  5
BB
  8
0
 10
-8.5984869029920947
 20
27.485052165076819
 30
0.0
  0
SEQEND
  5
BC
  8
0
  0
CIRCLE
  5
5B
  8
0
 10
-5.4586104780640659
 20
24.34517574014879
 30
0.0
 40
1.1629171944177881
  0
CIRCLE
  5
5C
  8
0
 10
-5.4586104780640659
 20
13.64633755150512
 30
0.0
 40
0.8140420360924522
  0
POLYLINE
  5
5D
  8
0
 62
   252
 66
     1
 10
0.0
 20
0.0
 30
0.0
  0
VERTEX
  5
BD
  8
0
 62
   252
 10
-7.7844448668996424
 20
26.90359356786794
 30
0.0
  0
VERTEX
  5
BE
  8
0
 62
   252
 10
-7.7844448668996424
 20
22.717091667963889
 30
0.0
  0
SEQEND
  5
BF
  8
0
 62
   252
  0
LINE
  5
5E
  8
0
 62
   252
 10
-7.7844448668996424
 20
22.717091667963889
 30
0.0
 11
-8.5984869029920947
 21
22.717091667963889
 31
0.0
  0
LINE
  5
5F
  8
0
 62
   252
 10
-3.1327760892284839
 20
22.717091667963889
 30
0.0
 11
-2.3187340531360352
 21
22.717091667963889
 31
0.0
  0
POLYLINE
  5
60
  8
0
 62
   252
 66
     1
 10
0.0
 20
0.0
 30
0.0
  0
VERTEX
  5
C0
  8
0
 62
   252
 10
-3.1327760892284839
 20
22.717091667963889
 30
0.0
  0
VERTEX
  5
C1
  8
0
 62
   252
 10
-3.1327760892284839
 20
26.90359356786794
 30
0.0
  0
SEQEND
  5
C2
  8
0
 62
   252
  0
POLYLINE
  5
61
  8
0
 62
   252
 66
     1
 10
0.0
 20
0.0
 30
0.0
  0
VERTEX
  5
C3
  8
0
 62
   252
 10
-7.7844448668996424
 20
17.135089134758498
 30
0.0
  0
VERTEX
  5
C4
  8
0
 62
   252
 10
-7.7844448668996424
 20
21.321591034662539
 30
0.0
  0
SEQEND
  5
C5
  8
0
 62
   252
  0
LINE
  5
62
  8
0
 62
   252
 10
-7.7844448668996424
 20
21.321591034662539
 30
0.0
 11
-8.5984869029920947
 21
21.321591034662539
 31
0.0
  0
POLYLINE
  5
63
  8
0
 62
   252
 66
     1
 10
0.0
 20
0.0
 30
0.0
  0
VERTEX
  5
C6
  8
0
 62
   252
 10
-3.1327760892284839
 20
21.321591034662539
 30
0.0
  0
VERTEX
  5
C7
  8
0
 62
   252
 10
-3.1327760892284839
 20
17.135089134758498
 30
0.0
  0
SEQEND
  5
C8
  8
0
 62
   252
  0
LINE
  5
64
  8
0
 62
   252
 10
-3.1327760892284839
 20
21.321591034662539
 30
0.0
 11
-2.3187340531360352
 21
21.321591034662539
 31
0.0
  0
LINE
  5
65
  8
0
 62
   252
 10
-7.7844448668996424
 20
17.135089134758498
 30
0.0
 11
-3.1327760892284839
 21
17.135089134758498
 31
0.0
  0
CIRCLE
  5
66
  8
0
 10
-5.4586104780640659
 20
30.857512028888419
 30
0.0
 40
0.8140420360924522
  0
POLYLINE
  5
67
  8
0
 62
   252
 66
     1
 10
0.0
 20
0.0
 30
0.0
  0
VERTEX
  5
C9
  8
0
 62
   252
 10
-3.9468181253209389
 20
21.321591034662539
 30
0.0
  0
VERTEX
  5
CA
  8
0
 62
   252
 10
-3.1327760892284839
 20
21.321591034662539
 30
0.0
  0
SEQEND
  5
CB
  8
0
 62
   252
  0
ARC
  5
68
  8
0
 62
   252
 10
-3.7142346864373819
 20
22.019341351313219
 30
0.0
 40
0.7354934919458191
 50
108.434949
 51
251.5650509999999
  0
POLYLINE
  5
69
  8
0
 62
   252
 66
     1
 10
0.0
 20
0.0
 30
0.0
  0
VERTEX
  5
CC
  8
0
 62
   252
 10
-3.1327760892284839
 20
22.717091667963889
 30
0.0
  0
VERTEX
  5
CD
  8
0
 62
   252
 10
-3.9468181253209389
 20
22.717091667963889
 30
0.0
  0
SEQEND
  5
CE
  8
0
 62
   252
  0
ARC
  5
6A
  8
0
 62
   252
 10
-7.2029862696907472
 20
22.019341351313219
 30
0.0
 40
0.7354934919458191
 50
288.43494900000002
 51
71.565050999999997
  0
POLYLINE
  5
6B
  8
0
 62
   252
 66
     1
 10
0.0
 20
0.0
 30
0.0
  0
VERTEX
  5
CF
  8
0
 62
   252
 10
-6.9704028308071884
 20
21.321591034662539
 30
0.0
  0
VERTEX
  5
D0
  8
0
 62
   252
 10
-7.7844448668996424
 20
21.321591034662539
 30
0.0
  0
SEQEND
  5
D1
  8
0
 62
   252
  0
POLYLINE
  5
6C
  8
0
 62
   252
 66
     1
 10
0.0
 20
0.0
 30
0.0
  0
VERTEX
  5
D2
  8
0
 62
   252
 10
-7.7844448668996424
 20
22.717091667963889
 30
0.0
  0
VERTEX
  5
D3
  8
0
 62
   252
 10
-6.9704028308071884
 20
22.717091667963889
 30
0.0
  0
SEQEND
  5
D4
  8
0
 62
   252
  0
TEXT
  5
6E
  8
0
 62
   252
 10
-7.2029862696907472
 20
20.04238212080298
 30
0.0
 40
0.5814585972088943
  1
  APS D0
 41
1.55
  7
TXT
 11
-7.2029862696907481
 21
20.62384071801187
 31
0.0
 73
     3
  0
TEXT
  5
6F
  8
0
 62
   252
 10
5.9999999999999938
 20
37.753937007874008
 30
0.0
 40
0.0984251968503937
  1
63 A 400V
 41
1.55
  7
TXT
 11
5.9999999999999938
 21
37.852362204724407
 31
0.0
 73
     3
  0
POLYLINE
  5
70
  8
0
 62
   252
 66
     1
 10
0.0
 20
0.0
 30
0.0
  0
VERTEX
  5
D5
  8
0
 62
   252
 10
3.146976760627576
 20
22.717091667963889
 30
0.0
  0
VERTEX
  5
D6
  8
0
 62
   252
 10
3.146976760627576
 20
26.90359356786794
 30
0.0
  0
SEQEND
  5
D7
  8
0
 62
   252
  0
POLYLINE
  5
71
  8
0
 62
   252
 66
     1
 10
0.0
 20
0.0
 30
0.0
  0
VERTEX
  5
D8
  8
0
 62
   252
 10
-1.5046920170435809
 20
26.90359356786794
 30
0.0
  0
VERTEX
  5
D9
  8
0
 62
   252
 10
-1.5046920170435809
 20
22.717091667963889
 30
0.0
  0
SEQEND
  5
DA
  8
0
 62
   252
  0
CIRCLE
  5
72
  8
0
 10
0.8211423717919968
 20
24.34517574014879
 30
0.0
 40
1.1629171944177881
  0
POLYLINE
  5
73
  8
0
 66
     1
 10
0.0
 20
0.0
 30
0.0
 70
     1
  0
VERTEX
  5
DB
  8
0
 10
-2.3187340531360352
 20
17.018797415316719
 30
0.0
  0
VERTEX
  5
DC
  8
0
 10
3.9610187967200239
 20
17.018797415316719
 30
0.0
  0
VERTEX
  5
DD
  8
0
 10
3.9610187967200239
 20
27.485052165076819
 30
0.0
  0
VERTEX
  5
DE
  8
0
 10
-2.3187340531360352
 20
27.485052165076819
 30
0.0
  0
SEQEND
  5
DF
  8
0
  0
POLYLINE
  5
74
  8
0
 66
     1
 10
0.0
 20
0.0
 30
0.0
 70
     1
  0
VERTEX
  5
E0
  8
0
 10
-2.3187340531360352
 20
11.785670040436671
 30
0.0
  0
VERTEX
  5
E1
  8
0
 10
3.9610187967200239
 20
11.785670040436671
 30
0.0
  0
VERTEX
  5
E2
  8
0
 10
3.9610187967200239
 20
32.718179539956878
 30
0.0
  0
VERTEX
  5
E3
  8
0
 10
-2.3187340531360352
 20
32.718179539956878
 30
0.0
  0
SEQEND
  5
E4
  8
0
  0
LINE
  5
75
  8
0
 62
   252
 10
-1.5046920170435809
 20
17.135089134758498
 30
0.0
 11
3.146976760627576
 21
17.135089134758498
 31
0.0
  0
CIRCLE
  5
76
  8
0
 10
0.8211423717919968
 20
13.64633755150512
 30
0.0
 40
0.8140420360924522
  0
POLYLINE
  5
77
  8
0
 62
   252
 66
     1
 10
0.0
 20
0.0
 30
0.0
  0
VERTEX
  5
E5
  8
0
 62
   252
 10
-1.5046920170435809
 20
17.135089134758498
 30
0.0
  0
VERTEX
  5
E6
  8
0
 62
   252
 10
-1.5046920170435809
 20
21.321591034662539
 30
0.0
  0
SEQEND
  5
E7
  8
0
 62
   252
  0
ARC
  5
78
  8
0
 62
   252
 10
-0.9232334198346887
 20
22.019341351313219
 30
0.0
 40
0.7354934919458191
 50
288.43494900000002
 51
71.565050999999997
  0
POLYLINE
  5
79
  8
0
 62
   252
 66
     1
 10
0.0
 20
0.0
 30
0.0
  0
VERTEX
  5
E8
  8
0
 62
   252
 10
-0.6906499809511282
 20
21.321591034662539
 30
0.0
  0
VERTEX
  5
E9
  8
0
 62
   252
 10
-1.5046920170435809
 20
21.321591034662539
 30
0.0
  0
SEQEND
  5
EA
  8
0
 62
   252
  0
LINE
  5
7A
  8
0
 62
   252
 10
-1.5046920170435809
 20
21.321591034662539
 30
0.0
 11
-2.3187340531360352
 21
21.321591034662539
 31
0.0
  0
POLYLINE
  5
7B
  8
0
 62
   252
 66
     1
 10
0.0
 20
0.0
 30
0.0
  0
VERTEX
  5
EB
  8
0
 62
   252
 10
-1.5046920170435809
 20
22.717091667963889
 30
0.0
  0
VERTEX
  5
EC
  8
0
 62
   252
 10
-0.6906499809511282
 20
22.717091667963889
 30
0.0
  0
SEQEND
  5
ED
  8
0
 62
   252
  0
LINE
  5
7C
  8
0
 62
   252
 10
-1.5046920170435809
 20
22.717091667963889
 30
0.0
 11
-2.3187340531360352
 21
22.717091667963889
 31
0.0
  0
POLYLINE
  5
7D
  8
0
 62
   252
 66
     1
 10
0.0
 20
0.0
 30
0.0
  0
VERTEX
  5
EE
  8
0
 62
   252
 10
3.146976760627576
 20
21.321591034662539
 30
0.0
  0
VERTEX
  5
EF
  8
0
 62
   252
 10
3.146976760627576
 20
17.135089134758498
 30
0.0
  0
SEQEND
  5
F0
  8
0
 62
   252
  0
ARC
  5
7E
  8
0
 62
   252
 10
2.5655181634186821
 20
22.019341351313219
 30
0.0
 40
0.7354934919458191
 50
108.434949
 51
251.5650509999999
  0
POLYLINE
  5
7F
  8
0
 62
   252
 66
     1
 10
0.0
 20
0.0
 30
0.0
  0
VERTEX
  5
F1
  8
0
 62
   252
 10
2.3329347245351251
 20
21.321591034662539
 30
0.0
  0
VERTEX
  5
F2
  8
0
 62
   252
 10
3.146976760627576
 20
21.321591034662539
 30
0.0
  0
SEQEND
  5
F3
  8
0
 62
   252
  0
LINE
  5
80
  8
0
 62
   252
 10
3.146976760627576
 20
21.321591034662539
 30
0.0
 11
3.9610187967200239
 21
21.321591034662539
 31
0.0
  0
POLYLINE
  5
81
  8
0
 62
   252
 66
     1
 10
0.0
 20
0.0
 30
0.0
  0
VERTEX
  5
F4
  8
0
 62
   252
 10
3.146976760627576
 20
22.717091667963889
 30
0.0
  0
VERTEX
  5
F5
  8
0
 62
   252
 10
2.3329347245351251
 20
22.717091667963889
 30
0.0
  0
SEQEND
  5
F6
  8
0
 62
   252
  0
LINE
  5
82
  8
0
 62
   252
 10
3.146976760627576
 20
22.717091667963889
 30
0.0
 11
3.9610187967200239
 21
22.717091667963889
 31
0.0
  0
CIRCLE
  5
83
  8
0
 10
0.8211423717919968
 20
30.857512028888419
 30
0.0
 40
0.8140420360924522
  0
POLYLINE
  5
84
  8
0
 66
     1
 10
0.0
 20
0.0
 30
0.0
 70
     1
  0
VERTEX
  5
F7
  8
0
 10
3.9610187967200239
 20
11.785670040436671
 30
0.0
  0
VERTEX
  5
F8
  8
0
 10
10.24077164657608
 20
11.785670040436671
 30
0.0
  0
VERTEX
  5
F9
  8
0
 10
10.24077164657608
 20
32.718179539956878
 30
0.0
  0
VERTEX
  5
FA
  8
0
 10
3.9610187967200239
 20
32.718179539956878
 30
0.0
  0
SEQEND
  5
FB
  8
0
  0
POLYLINE
  5
85
  8
0
 66
     1
 10
0.0
 20
0.0
 30
0.0
 70
     1
  0
VERTEX
  5
FC
  8
0
 10
3.9610187967200239
 20
17.018797415316719
 30
0.0
  0
VERTEX
  5
FD
  8
0
 10
10.24077164657608
 20
17.018797415316719
 30
0.0
  0
VERTEX
  5
FE
  8
0
 10
10.24077164657608
 20
27.485052165076819
 30
0.0
  0
VERTEX
  5
FF
  8
0
 10
3.9610187967200239
 20
27.485052165076819
 30
0.0
  0
SEQEND
  5
100
  8
0
  0
CIRCLE
  5
86
  8
0
 10
7.1008952216480559
 20
24.34517574014879
 30
0.0
 40
1.1629171944177881
  0
POLYLINE
  5
87
  8
0
 62
   252
 66
     1
 10
0.0
 20
0.0
 30
0.0
  0
VERTEX
  5
101
  8
0
 62
   252
 10
4.7750608328124802
 20
26.90359356786794
 30
0.0
  0
VERTEX
  5
102
  8
0
 62
   252
 10
4.7750608328124802
 20
22.717091667963889
 30
0.0
  0
SEQEND
  5
103
  8
0
 62
   252
  0
POLYLINE
  5
88
  8
0
 62
   252
 66
     1
 10
0.0
 20
0.0
 30
0.0
  0
VERTEX
  5
104
  8
0
 62
   252
 10
9.4267296104836351
 20
22.717091667963889
 30
0.0
  0
VERTEX
  5
105
  8
0
 62
   252
 10
9.4267296104836351
 20
26.90359356786794
 30
0.0
  0
SEQEND
  5
106
  8
0
 62
   252
  0
CIRCLE
  5
89
  8
0
 10
7.1008952216480559
 20
13.64633755150512
 30
0.0
 40
0.8140420360924522
  0
ARC
  5
8A
  8
0
 62
   252
 10
8.8452710132747399
 20
22.019341351313219
 30
0.0
 40
0.7354934919458191
 50
108.434949
 51
251.5650509999999
  0
LINE
  5
8B
  8
0
 62
   252
 10
4.7750608328124802
 20
17.135089134758498
 30
0.0
 11
9.4267296104836351
 21
17.135089134758498
 31
0.0
  0
POLYLINE
  5
8C
  8
0
 62
   252
 66
     1
 10
0.0
 20
0.0
 30
0.0
  0
VERTEX
  5
107
  8
0
 62
   252
 10
4.7750608328124802
 20
17.135089134758498
 30
0.0
  0
VERTEX
  5
108
  8
0
 62
   252
 10
4.7750608328124802
 20
21.321591034662539
 30
0.0
  0
SEQEND
  5
109
  8
0
 62
   252
  0
LINE
  5
8D
  8
0
 62
   252
 10
4.7750608328124802
 20
22.717091667963889
 30
0.0
 11
3.9610187967200239
 21
22.717091667963889
 31
0.0
  0
LINE
  5
8E
  8
0
 62
   252
 10
4.7750608328124802
 20
21.321591034662539
 30
0.0
 11
3.9610187967200239
 21
21.321591034662539
 31
0.0
  0
ARC
  5
8F
  8
0
 62
   252
 10
5.3565194300213754
 20
22.019341351313219
 30
0.0
 40
0.7354934919458191
 50
288.43494900000002
 51
71.565050999999997
  0
POLYLINE
  5
90
  8
0
 62
   252
 66
     1
 10
0.0
 20
0.0
 30
0.0
  0
VERTEX
  5
10A
  8
0
 62
   252
 10
5.5891028689049316
 20
21.321591034662539
 30
0.0
  0
VERTEX
  5
10B
  8
0
 62
   252
 10
4.7750608328124802
 20
21.321591034662539
 30
0.0
  0
SEQEND
  5
10C
  8
0
 62
   252
  0
POLYLINE
  5
91
  8
0
 62
   252
 66
     1
 10
0.0
 20
0.0
 30
0.0
  0
VERTEX
  5
10D
  8
0
 62
   252
 10
4.7750608328124802
 20
22.717091667963889
 30
0.0
  0
VERTEX
  5
10E
  8
0
 62
   252
 10
5.5891028689049316
 20
22.717091667963889
 30
0.0
  0
SEQEND
  5
10F
  8
0
 62
   252
  0
POLYLINE
  5
92
  8
0
 62
   252
 66
     1
 10
0.0
 20
0.0
 30
0.0
  0
VERTEX
  5
110
  8
0
 62
   252
 10
9.4267296104836351
 20
21.321591034662539
 30
0.0
  0
VERTEX
  5
111
  8
0
 62
   252
 10
9.4267296104836351
 20
17.135089134758498
 30
0.0
  0
SEQEND
  5
112
  8
0
 62
   252
  0
POLYLINE
  5
93
  8
0
 62
   252
 66
     1
 10
0.0
 20
0.0
 30
0.0
  0
VERTEX
  5
113
  8
0
 62
   252
 10
8.6126875743911846
 20
21.321591034662539
 30
0.0
  0
VERTEX
  5
114
  8
0
 62
   252
 10
9.4267296104836351
 20
21.321591034662539
 30
0.0
  0
SEQEND
  5
115
  8
0
 62
   252
  0
LINE
  5
94
  8
0
 62
   252
 10
9.4267296104836351
 20
21.321591034662539
 30
0.0
 11
10.24077164657608
 21
21.321591034662539
 31
0.0
  0
POLYLINE
  5
95
  8
0
 62
   252
 66
     1
 10
0.0
 20
0.0
 30
0.0
  0
VERTEX
  5
116
  8
0
 62
   252
 10
9.4267296104836351
 20
22.717091667963889
 30
0.0
  0
VERTEX
  5
117
  8
0
 62
   252
 10
8.6126875743911846
 20
22.717091667963889
 30
0.0
  0
SEQEND
  5
118
  8
0
 62
   252
  0
LINE
  5
96
  8
0
 62
   252
 10
9.4267296104836351
 20
22.717091667963889
 30
0.0
 11
10.24077164657608
 21
22.717091667963889
 31
0.0
  0
CIRCLE
  5
97
  8
0
 10
7.1008952216480559
 20
30.857512028888419
 30
0.0
 40
0.8140420360924522
  0
LINE
  5
98
  8
0
 62
   252
 10
15.70648246033967
 20
22.717091667963889
 30
0.0
 11
16.52052449643212
 21
22.717091667963889
 31
0.0
  0
LINE
  5
99
  8
0
 62
   252
 10
15.70648246033967
 20
21.321591034662539
 30
0.0
 11
16.52052449643212
 21
21.321591034662539
 31
0.0
  0
POLYLINE
  5
9A
  8
0
 66
     1
 10
0.0
 20
0.0
 30
0.0
 70
     1
  0
VERTEX
  5
119
  8
0
 10
10.24077164657608
 20
17.018797415316719
 30
0.0
  0
VERTEX
  5
11A
  8
0
 10
16.52052449643212
 20
17.018797415316719
 30
0.0
  0
VERTEX
  5
11B
  8
0
 10
16.52052449643212
 20
27.485052165076819
 30
0.0
  0
VERTEX
  5
11C
  8
0
 10
10.24077164657608
 20
27.485052165076819
 30
0.0
  0
SEQEND
  5
11D
  8
0
  0
POLYLINE
  5
9B
  8
0
 66
     1
 10
0.0
 20
0.0
 30
0.0
 70
     1
  0
VERTEX
  5
11E
  8
0
 10
10.24077164657608
 20
11.785670040436671
 30
0.0
  0
VERTEX
  5
11F
  8
0
 10
16.52052449643212
 20
11.785670040436671
 30
0.0
  0
VERTEX
  5
120
  8
0
 10
16.52052449643212
 20
32.718179539956878
 30
0.0
  0
VERTEX
  5
121
  8
0
 10
10.24077164657608
 20
32.718179539956878
 30
0.0
  0
SEQEND
  5
122
  8
0
  0
POLYLINE
  5
9C
  8
0
 62
   252
 66
     1
 10
0.0
 20
0.0
 30
0.0
  0
VERTEX
  5
123
  8
0
 62
   252
 10
15.70648246033967
 20
22.717091667963889
 30
0.0
  0
VERTEX
  5
124
  8
0
 62
   252
 10
15.70648246033967
 20
26.90359356786794
 30
0.0
  0
SEQEND
  5
125
  8
0
 62
   252
  0
POLYLINE
  5
9D
  8
0
 62
   252
 66
     1
 10
0.0
 20
0.0
 30
0.0
  0
VERTEX
  5
126
  8
0
 62
   252
 10
11.054813682668531
 20
26.90359356786794
 30
0.0
  0
VERTEX
  5
127
  8
0
 62
   252
 10
11.054813682668531
 20
22.717091667963889
 30
0.0
  0
SEQEND
  5
128
  8
0
 62
   252
  0
CIRCLE
  5
9E
  8
0
 10
13.38064807150411
 20
24.34517574014879
 30
0.0
 40
1.1629171944177881
  0
CIRCLE
  5
9F
  8
0
 10
13.38064807150411
 20
13.64633755150512
 30
0.0
 40
0.8140420360924522
  0
POLYLINE
  5
A0
  8
0
 62
   252
 66
     1
 10
0.0
 20
0.0
 30
0.0
  0
VERTEX
  5
129
  8
0
 62
   252
 10
15.70648246033967
 20
21.321591034662539
 30
0.0
  0
VERTEX
  5
12A
  8
0
 62
   252
 10
15.70648246033967
 20
17.135089134758498
 30
0.0
  0
SEQEND
  5
12B
  8
0
 62
   252
  0
POLYLINE
  5
A1
  8
0
 62
   252
 66
     1
 10
0.0
 20
0.0
 30
0.0
  0
VERTEX
  5
12C
  8
0
 62
   252
 10
11.054813682668531
 20
17.135089134758498
 30
0.0
  0
VERTEX
  5
12D
  8
0
 62
   252
 10
11.054813682668531
 20
21.321591034662539
 30
0.0
  0
SEQEND
  5
12E
  8
0
 62
   252
  0
TEXT
  5
A2
  8
0
 62
   252
 10
12.56660603541166
 20
18.298006329176289
 30
0.0
 40
2.325834388835577
  1
N
 41
1.55
  7
TXT
 11
12.56660603541166
 21
20.62384071801187
 31
0.0
 73
     3
  0
LINE
  5
A3
  8
0
 62
   252
 10
11.054813682668531
 20
17.135089134758498
 30
0.0
 11
15.70648246033967
 21
17.135089134758498
 31
0.0
  0
ARC
  5
A4
  8
0
 62
   252
 10
11.63627227987743
 20
22.019341351313219
 30
0.0
 40
0.7354934919458191
 50
288.43494900000002
 51
71.565050999999997
  0
LINE
  5
A5
  8
0
 62
   252
 10
11.054813682668531
 20
21.321591034662539
 30
0.0
 11
10.24077164657608
 21
21.321591034662539
 31
0.0
  0
POLYLINE
  5
A6
  8
0
 62
   252
 66
     1
 10
0.0
 20
0.0
 30
0.0
  0
VERTEX
  5
12F
  8
0
 62
   252
 10
11.86885571876098
 20
21.321591034662539
 30
0.0
  0
VERTEX
  5
130
  8
0
 62
   252
 10
11.054813682668531
 20
21.321591034662539
 30
0.0
  0
SEQEND
  5
131
  8
0
 62
   252
  0
LINE
  5
A7
  8
0
 62
   252
 10
11.054813682668531
 20
22.717091667963889
 30
0.0
 11
10.24077164657608
 21
22.717091667963889
 31
0.0
  0
POLYLINE
  5
A8
  8
0
 62
   252
 66
     1
 10
0.0
 20
0.0
 30
0.0
  0
VERTEX
  5
132
  8
0
 62
   252
 10
11.054813682668531
 20
22.717091667963889
 30
0.0
  0
VERTEX
  5
133
  8
0
 62
   252
 10
11.86885571876098
 20
22.717091667963889
 30
0.0
  0
SEQEND
  5
134
  8
0
 62
   252
  0
ARC
  5
A9
  8
0
 62
   252
 10
15.125023863130799
 20
22.019341351313219
 30
0.0
 40
0.7354934919458191
 50
108.434949
 51
251.5650509999999
  0
POLYLINE
  5
AA
  8
0
 62
   252
 66
     1
 10
0.0
 20
0.0
 30
0.0
  0
VERTEX
  5
135
  8
0
 62
   252
 10
14.892440424247241
 20
21.321591034662539
 30
0.0
  0
VERTEX
  5
136
  8
0
 62
   252
 10
15.70648246033967
 20
21.321591034662539
 30
0.0
  0
SEQEND
  5
137
  8
0
 62
   252
  0
POLYLINE
  5
AB
  8
0
 62
   252
 66
     1
 10
0.0
 20
0.0
 30
0.0
  0
VERTEX
  5
138
  8
0
 62
   252
 10
15.70648246033967
 20
22.717091667963889
 30
0.0
  0
VERTEX
  5
139
  8
0
 62
   252
 10
14.892440424247241
 20
22.717091667963889
 30
0.0
  0
SEQEND
  5
13A
  8
0
 62
   252
  0
CIRCLE
  5
AC
  8
0
 10
13.38064807150411
 20
30.857512028888419
 30
0.0
 40
0.8140420360924522
  0
ENDSEC
  0
EOF
