  0
SECTION
  2
HEADER
  9
$ACADVER
  1
AC1018
  9
$ACADMAINTVER
 70
    77
  9
$DWGCODEPAGE
  3
ANSI_1252
  9
$INSBASE
 10
0.0
 20
0.0
 30
0.0
  9
$EXTMIN
 10
0.0
 20
-149.0
 30
0.0
  9
$EXTMAX
 10
211.000000000001
 20
130.1252472575932
 30
0.0
  9
$LIMMIN
 10
-10.0
 20
-250.0
  9
$LIMMAX
 10
1200.0
 20
250.0
  9
$ORTHOMODE
 70
     0
  9
$REGENMODE
 70
     1
  9
$FILLMODE
 70
     1
  9
$QTEXTMODE
 70
     0
  9
$MIRRTEXT
 70
     1
  9
$LTSCALE
 40
20.0
  9
$ATTMODE
 70
     1
  9
$TEXTSIZE
 40
3.5
  9
$TRACEWID
 40
1.0
  9
$TEXTSTYLE
  7
TXT8
  9
$CLAYER
  8
1
  9
$CELTYPE
  6
CONTINUOUS
  9
$CECOLOR
 62
     7
  9
$CELTSCALE
 40
1.0
  9
$DISPSILH
 70
     0
  9
$DIMSCALE
 40
1.0
  9
$DIMASZ
 40
3.5
  9
$DIMEXO
 40
0.1
  9
$DIMDLI
 40
7.0
  9
$DIMRND
 40
0.0
  9
$DIMDLE
 40
0.0
  9
$DIMEXE
 40
1.8
  9
$DIMTP
 40
0.0
  9
$DIMTM
 40
0.0
  9
$DIMTXT
 40
3.5
  9
$DIMCEN
 40
1.5
  9
$DIMTSZ
 40
0.0
  9
$DIMTOL
 70
     0
  9
$DIMLIM
 70
     0
  9
$DIMTIH
 70
     0
  9
$DIMTOH
 70
     0
  9
$DIMSE1
 70
     0
  9
$DIMSE2
 70
     0
  9
$DIMTAD
 70
     0
  9
$DIMZIN
 70
     0
  9
$DIMBLK
  1

  9
$DIMASO
 70
     1
  9
$DIMSHO
 70
     0
  9
$DIMPOST
  1

  9
$DIMAPOST
  1

  9
$DIMALT
 70
     0
  9
$DIMALTD
 70
     2
  9
$DIMALTF
 40
25.4
  9
$DIMLFAC
 40
1.0
  9
$DIMTOFL
 70
     0
  9
$DIMTVP
 40
0.0
  9
$DIMTIX
 70
     0
  9
$DIMSOXD
 70
     0
  9
$DIMSAH
 70
     0
  9
$DIMBLK1
  1

  9
$DIMBLK2
  1

  9
$DIMSTYLE
  2
STANDARD
  9
$DIMCLRD
 70
     0
  9
$DIMCLRE
 70
     0
  9
$DIMCLRT
 70
     0
  9
$DIMTFAC
 40
1.0
  9
$DIMGAP
 40
0.09
  9
$DIMJUST
 70
     0
  9
$DIMSD1
 70
     0
  9
$DIMSD2
 70
     0
  9
$DIMTOLJ
 70
     1
  9
$DIMTZIN
 70
     0
  9
$DIMALTZ
 70
     0
  9
$DIMALTTZ
 70
     0
  9
$DIMUPT
 70
     0
  9
$DIMDEC
 70
     2
  9
$DIMTDEC
 70
     2
  9
$DIMALTU
 70
     2
  9
$DIMALTTD
 70
     2
  9
$DIMTXSTY
  7
TXT8
  9
$DIMAUNIT
 70
     0
  9
$DIMADEC
 70
     0
  9
$DIMALTRND
 40
0.0
  9
$DIMAZIN
 70
     0
  9
$DIMDSEP
 70
    46
  9
$DIMATFIT
 70
     3
  9
$DIMFRAC
 70
     0
  9
$DIMLDRBLK
  1

  9
$DIMLUNIT
 70
     2
  9
$DIMLWD
 70
    -2
  9
$DIMLWE
 70
    -2
  9
$DIMTMOVE
 70
     2
  9
$LUNITS
 70
     2
  9
$LUPREC
 70
     2
  9
$SKETCHINC
 40
1.0
  9
$FILLETRAD
 40
3.0
  9
$AUNITS
 70
     0
  9
$AUPREC
 70
     0
  9
$MENU
  1
ACAD
  9
$ELEVATION
 40
0.0
  9
$PELEVATION
 40
0.0
  9
$THICKNESS
 40
0.0
  9
$LIMCHECK
 70
     0
  9
$CHAMFERA
 40
10.0
  9
$CHAMFERB
 40
10.0
  9
$CHAMFERC
 40
0.0
  9
$CHAMFERD
 40
0.0
  9
$SKPOLY
 70
     0
  9
$TDCREATE
 40
2451105.776850694
  9
$TDUCREATE
 40
2451105.693517361
  9
$TDUPDATE
 40
2454708.332374491
  9
$TDUUPDATE
 40
2454708.249041158
  9
$TDINDWG
 40
0.0468951620
  9
$TDUSRTIMER
 40
0.0468951620
  9
$USRTIMER
 70
     1
  9
$ANGBASE
 50
0.0
  9
$ANGDIR
 70
     0
  9
$PDMODE
 70
     0
  9
$PDSIZE
 40
0.0
  9
$PLINEWID
 40
0.0
  9
$SPLFRAME
 70
     0
  9
$SPLINETYPE
 70
     6
  9
$SPLINESEGS
 70
     8
  9
$HANDSEED
  5
159
  9
$SURFTAB1
 70
     6
  9
$SURFTAB2
 70
     6
  9
$SURFTYPE
 70
     6
  9
$SURFU
 70
     6
  9
$SURFV
 70
     6
  9
$UCSBASE
  2

  9
$UCSNAME
  2

  9
$UCSORG
 10
0.0
 20
0.0
 30
0.0
  9
$UCSXDIR
 10
1.0
 20
0.0
 30
0.0
  9
$UCSYDIR
 10
0.0
 20
1.0
 30
0.0
  9
$UCSORTHOREF
  2

  9
$UCSORTHOVIEW
 70
     0
  9
$UCSORGTOP
 10
0.0
 20
0.0
 30
0.0
  9
$UCSORGBOTTOM
 10
0.0
 20
0.0
 30
0.0
  9
$UCSORGLEFT
 10
0.0
 20
0.0
 30
0.0
  9
$UCSORGRIGHT
 10
0.0
 20
0.0
 30
0.0
  9
$UCSORGFRONT
 10
0.0
 20
0.0
 30
0.0
  9
$UCSORGBACK
 10
0.0
 20
0.0
 30
0.0
  9
$PUCSBASE
  2

  9
$PUCSNAME
  2

  9
$PUCSORG
 10
0.0
 20
0.0
 30
0.0
  9
$PUCSXDIR
 10
1.0
 20
0.0
 30
0.0
  9
$PUCSYDIR
 10
0.0
 20
1.0
 30
0.0
  9
$PUCSORTHOREF
  2

  9
$PUCSORTHOVIEW
 70
     0
  9
$PUCSORGTOP
 10
0.0
 20
0.0
 30
0.0
  9
$PUCSORGBOTTOM
 10
0.0
 20
0.0
 30
0.0
  9
$PUCSORGLEFT
 10
0.0
 20
0.0
 30
0.0
  9
$PUCSORGRIGHT
 10
0.0
 20
0.0
 30
0.0
  9
$PUCSORGFRONT
 10
0.0
 20
0.0
 30
0.0
  9
$PUCSORGBACK
 10
0.0
 20
0.0
 30
0.0
  9
$USERI1
 70
     0
  9
$USERI2
 70
     0
  9
$USERI3
 70
     0
  9
$USERI4
 70
     0
  9
$USERI5
 70
     0
  9
$USERR1
 40
0.0
  9
$USERR2
 40
0.0
  9
$USERR3
 40
0.0
  9
$USERR4
 40
0.0
  9
$USERR5
 40
0.0
  9
$WORLDVIEW
 70
     1
  9
$SHADEDGE
 70
     3
  9
$SHADEDIF
 70
    70
  9
$TILEMODE
 70
     1
  9
$MAXACTVP
 70
    16
  9
$PINSBASE
 10
0.0
 20
0.0
 30
0.0
  9
$PLIMCHECK
 70
     0
  9
$PEXTMIN
 10
1.000000000000000E+20
 20
1.000000000000000E+20
 30
1.000000000000000E+20
  9
$PEXTMAX
 10
-1.000000000000000E+20
 20
-1.000000000000000E+20
 30
-1.000000000000000E+20
  9
$PLIMMIN
 10
0.0
 20
0.0
  9
$PLIMMAX
 10
12.0
 20
9.0
  9
$UNITMODE
 70
     0
  9
$VISRETAIN
 70
     0
  9
$PLINEGEN
 70
     0
  9
$PSLTSCALE
 70
     0
  9
$TREEDEPTH
 70
  3020
  9
$CMLSTYLE
  2
STANDARD
  9
$CMLJUST
 70
     0
  9
$CMLSCALE
 40
1.0
  9
$PROXYGRAPHICS
 70
     1
  9
$MEASUREMENT
 70
     0
  9
$CELWEIGHT
370
    -1
  9
$ENDCAPS
280
     0
  9
$JOINSTYLE
280
     0
  9
$LWDISPLAY
290
     0
  9
$INSUNITS
 70
     0
  9
$HYPERLINKBASE
  1

  9
$STYLESHEET
  1

  9
$XEDIT
290
     1
  9
$CEPSNTYPE
380
     0
  9
$PSTYLEMODE
290
     1
  9
$FINGERPRINTGUID
  2
{E75EDD3D-E563-4C0F-AFDD-1598834E929B}
  9
$VERSIONGUID
  2
{C36470FC-5B82-4680-B3DD-34080C4A75A5}
  9
$EXTNAMES
290
     1
  9
$PSVPSCALE
 40
0.0
  9
$OLESTARTUP
290
     0
  9
$SORTENTS
280
   127
  9
$INDEXCTL
280
     0
  9
$HIDETEXT
280
     0
  9
$XCLIPFRAME
290
     0
  9
$HALOGAP
280
     0
  9
$OBSCOLOR
 70
   257
  9
$OBSLTYPE
280
     0
  9
$INTERSECTIONDISPLAY
280
     0
  9
$INTERSECTIONCOLOR
 70
   257
  9
$DIMASSOC
280
     1
  9
$PROJECTNAME
  1

  0
ENDSEC
  0
SECTION
  2
CLASSES
  0
CLASS
  1
DICTIONARYVAR
  2
AcDbDictionaryVar
  3
ObjectDBX Classes
 90
        0
 91
        2
280
     0
281
     0
  0
CLASS
  1
ACDBDICTIONARYWDFLT
  2
AcDbDictionaryWithDefault
  3
ObjectDBX Classes
 90
        0
 91
        1
280
     0
281
     0
  0
CLASS
  1
TABLESTYLE
  2
AcDbTableStyle
  3
ObjectDBX Classes
 90
     2047
 91
        1
280
     0
281
     0
  0
ENDSEC
  0
SECTION
  2
TABLES
  0
TABLE
  2
VPORT
  5
8
330
0
100
AcDbSymbolTable
 70
     2
  0
VPORT
  5
158
330
8
100
AcDbSymbolTableRecord
100
AcDbViewportTableRecord
  2
*Active
 70
     0
 10
0.0
 20
0.0
 11
1.0
 21
1.0
 12
99.99999811931497
 22
65.13281155207366
 13
0.0
 23
0.0
 14
1.0
 24
1.0
 15
1.0
 25
1.0
 16
0.0
 26
0.0
 36
1.0
 17
0.0
 27
0.0
 37
0.0
 40
442.418000971897
 41
1.563471502590673
 42
50.0
 43
0.0
 44
0.0
 50
0.0
 51
0.0
 71
     0
 72
   100
 73
     1
 74
     1
 75
     1
 76
     0
 77
     0
 78
     0
281
     0
 65
     1
110
0.0
120
0.0
130
0.0
111
1.0
121
0.0
131
0.0
112
0.0
122
1.0
132
0.0
 79
     0
146
0.0
  0
ENDTAB
  0
TABLE
  2
LTYPE
  5
5
330
0
100
AcDbSymbolTable
 70
    10
  0
LTYPE
  5
11
330
5
100
AcDbSymbolTableRecord
100
AcDbLinetypeTableRecord
  2
BYBLOCK
 70
     0
  3

 72
    65
 73
     0
 40
0.0
  0
LTYPE
  5
12
330
5
100
AcDbSymbolTableRecord
100
AcDbLinetypeTableRecord
  2
BYLAYER
 70
     0
  3

 72
    65
 73
     0
 40
0.0
  0
LTYPE
  5
13
330
5
100
AcDbSymbolTableRecord
100
AcDbLinetypeTableRecord
  2
CONTINUOUS
 70
     0
  3
Ausgezogene Linie
 72
    65
 73
     0
 40
0.0
  0
LTYPE
  5
1E
330
5
100
AcDbSymbolTableRecord
100
AcDbLinetypeTableRecord
  2
GESTRICHELT
 70
     0
  3
__ __ __ __ __ __ __ __ __ __ __ __ __ __ __
 72
    65
 73
     2
 40
0.75
 49
0.5
 74
     0
 49
-0.25
 74
     0
  0
LTYPE
  5
1F
330
5
100
AcDbSymbolTableRecord
100
AcDbLinetypeTableRecord
  2
VERDECKT
 70
     0
  3
_ _ _ _ _ _ _ _ _ _ _ _ _ _ _ _ _ _ _ _ _ _ 
 72
    65
 73
     2
 40
0.25
 49
0.125
 74
     0
 49
-0.125
 74
     0
  0
LTYPE
  5
20
330
5
100
AcDbSymbolTableRecord
100
AcDbLinetypeTableRecord
  2
MITTE
 70
     0
  3
____ _ ____ _ ____ _ ____ _ ____ _ ____ _ __
 72
    65
 73
     4
 40
2.0
 49
1.25
 74
     0
 49
-0.25
 74
     0
 49
0.25
 74
     0
 49
-0.25
 74
     0
  0
LTYPE
  5
21
330
5
100
AcDbSymbolTableRecord
100
AcDbLinetypeTableRecord
  2
PHANTOM
 70
     0
  3
_____ _ _ _____ _ _ _____ _ _ _____ _ _ ____
 72
    65
 73
     6
 40
2.5
 49
1.25
 74
     0
 49
-0.25
 74
     0
 49
0.25
 74
     0
 49
-0.25
 74
     0
 49
0.25
 74
     0
 49
-0.25
 74
     0
  0
LTYPE
  5
22
330
5
100
AcDbSymbolTableRecord
100
AcDbLinetypeTableRecord
  2
PUNKT
 70
     0
  3
............................................
 72
    65
 73
     2
 40
0.25
 49
0.0
 74
     0
 49
-0.25
 74
     0
  0
LTYPE
  5
23
330
5
100
AcDbSymbolTableRecord
100
AcDbLinetypeTableRecord
  2
STRICHPUNKT
 70
     0
  3
__ . __ . __ . __ . __ . __ . __ . __ . __ .
 72
    65
 73
     4
 40
1.0
 49
0.5
 74
     0
 49
-0.25
 74
     0
 49
0.0
 74
     0
 49
-0.25
 74
     0
  0
LTYPE
  5
24
330
5
100
AcDbSymbolTableRecord
100
AcDbLinetypeTableRecord
  2
RAND
 70
     0
  3
__ __ . __ __ . __ __ . __ __ . __ __ . __ _
 72
    65
 73
     6
 40
1.75
 49
0.5
 74
     0
 49
-0.25
 74
     0
 49
0.5
 74
     0
 49
-0.25
 74
     0
 49
0.0
 74
     0
 49
-0.25
 74
     0
  0
LTYPE
  5
25
330
5
100
AcDbSymbolTableRecord
100
AcDbLinetypeTableRecord
  2
GETRENNT
 70
     0
  3
__ . . __ . . __ . . __ . . __ . . __ . . __
 72
    65
 73
     6
 40
1.25
 49
0.5
 74
     0
 49
-0.25
 74
     0
 49
0.0
 74
     0
 49
-0.25
 74
     0
 49
0.0
 74
     0
 49
-0.25
 74
     0
  0
LTYPE
  5
26
330
5
100
AcDbSymbolTableRecord
100
AcDbLinetypeTableRecord
  2
PUNKTE
 70
     0
  3
schliess
 72
    65
 73
     2
 40
0.1
 49
0.05
 74
     0
 49
-0.05
 74
     0
  0
ENDTAB
  0
TABLE
  2
LAYER
  5
2
330
0
100
AcDbSymbolTable
 70
    11
  0
LAYER
  5
E
330
2
100
AcDbSymbolTableRecord
100
AcDbLayerTableRecord
  2
0
 70
     0
 62
     7
  6
CONTINUOUS
370
    -3
390
143
  0
LAYER
  5
29
330
2
100
AcDbSymbolTableRecord
100
AcDbLayerTableRecord
  2
1
 70
     0
 62
     7
  6
CONTINUOUS
370
    -3
390
143
  0
LAYER
  5
2A
330
2
100
AcDbSymbolTableRecord
100
AcDbLayerTableRecord
  2
2
 70
     0
 62
     7
  6
CONTINUOUS
370
    -3
390
143
  0
LAYER
  5
2B
330
2
100
AcDbSymbolTableRecord
100
AcDbLayerTableRecord
  2
3
 70
     0
 62
     7
  6
CONTINUOUS
370
    -3
390
143
  0
LAYER
  5
2C
330
2
100
AcDbSymbolTableRecord
100
AcDbLayerTableRecord
  2
4
 70
     0
 62
     7
  6
CONTINUOUS
370
    -3
390
143
  0
LAYER
  5
2D
330
2
100
AcDbSymbolTableRecord
100
AcDbLayerTableRecord
  2
5
 70
     0
 62
     7
  6
CONTINUOUS
370
    -3
390
143
  0
LAYER
  5
2E
330
2
100
AcDbSymbolTableRecord
100
AcDbLayerTableRecord
  2
6
 70
     0
 62
     7
  6
CONTINUOUS
370
    -3
390
143
  0
LAYER
  5
2F
330
2
100
AcDbSymbolTableRecord
100
AcDbLayerTableRecord
  2
7
 70
     0
 62
     7
  6
CONTINUOUS
370
    -3
390
143
  0
LAYER
  5
30
330
2
100
AcDbSymbolTableRecord
100
AcDbLayerTableRecord
  2
8
 70
     0
 62
     7
  6
CONTINUOUS
370
    -3
390
143
  0
LAYER
  5
31
330
2
100
AcDbSymbolTableRecord
100
AcDbLayerTableRecord
  2
9
 70
     0
 62
     7
  6
CONTINUOUS
370
    -3
390
143
  0
LAYER
  5
32
330
2
100
AcDbSymbolTableRecord
100
AcDbLayerTableRecord
  2
10
 70
     0
 62
     7
  6
CONTINUOUS
370
    -3
390
143
  0
ENDTAB
  0
TABLE
  2
STYLE
  5
3
330
0
100
AcDbSymbolTable
 70
     2
  0
STYLE
  5
F
330
3
100
AcDbSymbolTableRecord
100
AcDbTextStyleTableRecord
  2
STANDARD
 70
     0
 40
0.0
 41
1.0
 50
0.0
 71
     0
 42
0.2
  3
txt8
  4

  0
STYLE
  5
1D
330
3
100
AcDbSymbolTableRecord
100
AcDbTextStyleTableRecord
  2
TXT8
 70
     0
 40
0.0
 41
1.0
 50
0.0
 71
     0
 42
3.5
  3
txt.shx
  4

  0
ENDTAB
  0
TABLE
  2
VIEW
  5
6
330
0
100
AcDbSymbolTable
 70
     0
  0
ENDTAB
  0
TABLE
  2
UCS
  5
7
330
0
100
AcDbSymbolTable
 70
     0
  0
ENDTAB
  0
TABLE
  2
APPID
  5
9
330
0
100
AcDbSymbolTable
 70
     2
  0
APPID
  5
10
330
9
100
AcDbSymbolTableRecord
100
AcDbRegAppTableRecord
  2
ACAD
 70
     0
  0
APPID
  5
156
330
9
100
AcDbSymbolTableRecord
100
AcDbRegAppTableRecord
  2
DCO15
 70
     0
  0
ENDTAB
  0
TABLE
  2
DIMSTYLE
  5
A
330
0
100
AcDbSymbolTable
 70
     1
100
AcDbDimStyleTable
 71
     0
  0
DIMSTYLE
105
C3
330
A
100
AcDbSymbolTableRecord
100
AcDbDimStyleTableRecord
  2
STANDARD
 70
     0
340
F
  0
ENDTAB
  0
TABLE
  2
BLOCK_RECORD
  5
1
330
0
100
AcDbSymbolTable
 70
     1
  0
BLOCK_RECORD
  5
17
330
1
100
AcDbSymbolTableRecord
100
AcDbBlockTableRecord
  2
*MODEL_SPACE
340
14A
  0
BLOCK_RECORD
  5
14
330
1
100
AcDbSymbolTableRecord
100
AcDbBlockTableRecord
  2
*PAPER_SPACE
340
14B
  0
BLOCK_RECORD
  5
1C
330
1
100
AcDbSymbolTableRecord
100
AcDbBlockTableRecord
  2
SOR33001-G1
340
0
  0
ENDTAB
  0
ENDSEC
  0
SECTION
  2
BLOCKS
  0
BLOCK
  5
35
330
17
100
AcDbEntity
  8
0
 62
     7
100
AcDbBlockBegin
  2
*MODEL_SPACE
 70
     0
 10
0.0
 20
0.0
 30
0.0
  3
*MODEL_SPACE
  1

  0
ENDBLK
  5
36
330
17
100
AcDbEntity
  8
0
 62
     7
100
AcDbBlockEnd
  0
BLOCK
  5
33
330
14
100
AcDbEntity
 67
     1
  8
0
 62
     7
100
AcDbBlockBegin
  2
*PAPER_SPACE
 70
     0
 10
0.0
 20
0.0
 30
0.0
  3
*PAPER_SPACE
  1

  0
ENDBLK
  5
34
330
14
100
AcDbEntity
 67
     1
  8
0
 62
     7
100
AcDbBlockEnd
  0
BLOCK
  5
39
330
1C
100
AcDbEntity
  8
0
100
AcDbBlockBegin
  2
SOR33001-G1
 70
     0
 10
0.0
 20
0.0
 30
0.0
  3
SOR33001-G1
  1

  0
LWPOLYLINE
  5
3A
330
1C
100
AcDbEntity
  8
1
 62
     7
100
AcDbPolyline
 90
        4
 70
     1
 43
0.0
 10
0.0
 20
-182.0
 10
0.0
 20
169.0
 10
185.0
 20
169.0
 10
185.0
 20
-182.0
  0
LWPOLYLINE
  5
40
330
1C
100
AcDbEntity
  8
1
 62
     7
100
AcDbPolyline
 90
        8
 70
     1
 43
0.0
 10
13.0
 20
-32.0
 10
13.0
 20
42.0
 42
-0.4142136
 10
16.0
 20
45.0
 10
170.0
 20
45.0
 42
-0.4142136
 10
173.0
 20
42.0
 10
173.0
 20
-32.0
 42
-0.4142136
 10
170.0
 20
-35.0
 10
16.0
 20
-35.0
 42
-0.4142135
  0
LWPOLYLINE
  5
4A
330
1C
100
AcDbEntity
  8
1
 62
     7
100
AcDbPolyline
 90
        8
 70
     1
 43
0.0
 10
13.0
 20
-66.0
 10
13.0
 20
-54.0
 42
-0.4142136
 10
16.0
 20
-51.0
 10
170.0
 20
-51.0
 42
-0.4142136
 10
173.0
 20
-54.0
 10
173.0
 20
-66.0
 42
-0.4142136
 10
170.0
 20
-69.0
 10
16.0
 20
-69.0
 42
-0.4142135
  0
LINE
  5
54
330
1C
100
AcDbEntity
  8
1
 62
     7
100
AcDbLine
 10
0.0
 20
-92.0
 30
0.0
 11
185.0
 21
-92.0
 31
0.0
  0
CIRCLE
  5
55
330
1C
100
AcDbEntity
  8
1
  6
GESTRICHELT
 62
     7
100
AcDbCircle
 10
93.0
 20
-25.0
 30
0.0
 40
2.5
  0
CIRCLE
  5
56
330
1C
100
AcDbEntity
  8
1
  6
GESTRICHELT
 62
     7
100
AcDbCircle
 10
28.0
 20
-25.0
 30
0.0
 40
2.5
  0
CIRCLE
  5
57
330
1C
100
AcDbEntity
  8
1
  6
GESTRICHELT
 62
     7
100
AcDbCircle
 10
158.0
 20
-25.0
 30
0.0
 40
2.5
  0
LWPOLYLINE
  5
58
330
1C
100
AcDbEntity
  8
1
 62
     7
100
AcDbPolyline
 90
        8
 70
     1
 43
0.0
 10
41.5
 20
67.0
 10
41.5
 20
109.0
 42
-0.4142136
 10
43.5
 20
111.0
 10
141.5
 20
111.0
 42
-0.4142136
 10
143.5
 20
109.0
 10
143.5
 20
67.0
 42
-0.4142136
 10
141.5
 20
65.0
 10
43.5
 20
65.0
 42
-0.4142135
  0
LINE
  5
62
330
1C
100
AcDbEntity
  8
1
 62
     7
100
AcDbLine
 10
41.5
 20
96.0
 30
0.0
 11
143.5
 21
96.0
 31
0.0
  0
LINE
  5
63
330
1C
100
AcDbEntity
  8
1
 62
     7
100
AcDbLine
 10
16.0
 20
115.5
 30
0.0
 11
170.0
 21
115.5
 31
0.0
  0
LINE
  5
64
330
1C
100
AcDbEntity
  8
1
 62
     7
100
AcDbLine
 10
16.0
 20
120.5
 30
0.0
 11
170.0
 21
120.5
 31
0.0
  0
CIRCLE
  5
65
330
1C
100
AcDbEntity
  8
1
  6
GESTRICHELT
 62
     7
100
AcDbCircle
 10
93.0
 20
23.0
 30
0.0
 40
2.5
  0
CIRCLE
  5
66
330
1C
100
AcDbEntity
  8
1
  6
GESTRICHELT
 62
     7
100
AcDbCircle
 10
28.0
 20
23.0
 30
0.0
 40
2.5
  0
CIRCLE
  5
67
330
1C
100
AcDbEntity
  8
1
  6
GESTRICHELT
 62
     7
100
AcDbCircle
 10
158.0
 20
23.0
 30
0.0
 40
2.5
  0
LWPOLYLINE
  5
68
330
1C
100
AcDbEntity
  8
1
 62
     7
100
AcDbPolyline
 90
       13
 70
     1
 43
0.0
 10
145.0
 20
58.0
 10
145.0
 20
53.75
 10
146.0
 20
53.75
 10
148.0
 20
56.75
 10
148.0
 20
53.75
 10
149.2
 20
53.75
 10
152.0
 20
58.0
 10
151.0
 20
58.0
 10
149.0
 20
54.75
 10
149.0
 20
58.0
 10
148.0
 20
58.0
 10
146.0
 20
54.75
 10
146.0
 20
58.0
  0
LWPOLYLINE
  5
77
330
1C
100
AcDbEntity
  8
1
 62
     7
100
AcDbPolyline
 90
        4
 70
     1
 43
0.0
 10
143.0
 20
50.5
 10
143.0
 20
60.5
 10
173.0
 20
60.5
 10
173.0
 20
50.5
  0
LWPOLYLINE
  5
7D
330
1C
100
AcDbEntity
  8
1
 62
     7
100
AcDbPolyline
 90
        4
 70
     1
 43
0.0
 10
143.0
 20
50.5
 10
143.0
 20
60.5
 10
173.0
 20
60.5
 10
173.0
 20
50.5
  0
ARC
  5
83
330
1C
100
AcDbEntity
  8
1
 62
     7
100
AcDbCircle
 10
153.616
 20
55.71871999999999
 30
0.0
 40
2.284225
100
AcDbArc
 50
92.91071
 51
54.92408000000001
  0
LINE
  5
84
330
1C
100
AcDbEntity
  8
1
 62
     7
100
AcDbLine
 10
167.5
 20
58.0
 30
0.0
 11
167.5
 21
53.75
 31
0.0
  0
ARC
  5
85
330
1C
100
AcDbEntity
  8
1
 62
     7
100
AcDbCircle
 10
169.4963
 20
56.75
 30
0.0
 40
1.253704
100
AcDbArc
 50
265.5948
 51
94.40519000000001
  0
LWPOLYLINE
  5
86
330
1C
100
AcDbEntity
  8
1
 62
     7
100
AcDbPolyline
 90
       10
 70
     1
 43
0.0
 10
160.55
 20
58.0
 10
160.55
 20
53.75
 10
161.35
 20
53.75
 10
161.35
 20
56.5
 10
163.05
 20
53.75
 10
163.85
 20
53.75
 10
163.85
 20
58.0
 10
163.05
 20
58.0
 10
163.05
 20
55.04999999999999
 10
161.35
 20
58.0
  0
LWPOLYLINE
  5
92
330
1C
100
AcDbEntity
  8
1
 62
     7
100
AcDbPolyline
 90
       12
 70
     1
 43
0.0
 10
164.7
 20
58.0
 10
164.7
 20
53.75
 10
166.9
 20
53.75
 10
166.9
 20
54.55
 10
165.5
 20
54.55
 10
165.5
 20
55.5
 10
166.9
 20
55.5
 10
166.9
 20
56.29999999999999
 10
165.5
 20
56.29999999999999
 10
165.5
 20
57.2
 10
166.9
 20
57.2
 10
166.9
 20
58.0
  0
LWPOLYLINE
  5
A0
330
1C
100
AcDbEntity
  8
1
 62
     7
100
AcDbPolyline
 90
       12
 70
     1
 43
0.0
 10
156.5
 20
58.0
 10
156.5
 20
53.75
 10
157.3
 20
53.75
 10
157.3
 20
55.5
 10
158.95
 20
55.5
 10
158.95
 20
53.75
 10
159.75
 20
53.75
 10
159.75
 20
58.0
 10
158.95
 20
58.0
 10
158.95
 20
56.25
 10
157.3
 20
56.25
 10
157.3
 20
58.0
  0
LINE
  5
AE
330
1C
100
AcDbEntity
  8
1
 62
     7
100
AcDbLine
 10
170.55
 20
53.75
 30
0.0
 11
171.55
 21
53.75
 31
0.0
  0
LINE
  5
AF
330
1C
100
AcDbEntity
  8
1
 62
     7
100
AcDbLine
 10
168.3
 20
55.5
 30
0.0
 11
170.55
 21
53.75
 31
0.0
  0
LINE
  5
B0
330
1C
100
AcDbEntity
  8
1
 62
     7
100
AcDbLine
 10
169.4
 20
55.5
 30
0.0
 11
171.55
 21
53.75
 31
0.0
  0
LINE
  5
B1
330
1C
100
AcDbEntity
  8
1
 62
     7
100
AcDbLine
 10
168.3
 20
53.75
 30
0.0
 11
168.3
 21
55.5
 31
0.0
  0
LINE
  5
B2
330
1C
100
AcDbEntity
  8
1
 62
     7
100
AcDbLine
 10
167.5
 20
53.75
 30
0.0
 11
168.3
 21
53.75
 31
0.0
  0
LINE
  5
B3
330
1C
100
AcDbEntity
  8
1
 62
     7
100
AcDbLine
 10
152.4
 20
56.29999999999999
 30
0.0
 11
152.8
 21
56.29999999999999
 31
0.0
  0
LINE
  5
B4
330
1C
100
AcDbEntity
  8
1
 62
     7
100
AcDbLine
 10
153.7
 20
56.29999999999999
 30
0.0
 11
154.1
 21
56.29999999999999
 31
0.0
  0
LINE
  5
B5
330
1C
100
AcDbEntity
  8
1
 62
     7
100
AcDbLine
 10
154.3
 20
58.7
 30
0.0
 11
155.2
 21
58.7
 31
0.0
  0
LINE
  5
B6
330
1C
100
AcDbEntity
  8
1
 62
     7
100
AcDbLine
 10
155.2
 20
58.7
 30
0.0
 11
153.7
 21
56.29999999999999
 31
0.0
  0
LINE
  5
B7
330
1C
100
AcDbEntity
  8
1
 62
     7
100
AcDbLine
 10
152.8
 20
56.29999999999999
 30
0.0
 11
154.3
 21
58.7
 31
0.0
  0
LINE
  5
B8
330
1C
100
AcDbEntity
  8
1
 62
     7
100
AcDbLine
 10
153.5
 20
58.0
 30
0.0
 11
152.4
 21
56.29999999999999
 31
0.0
  0
LINE
  5
B9
330
1C
100
AcDbEntity
  8
1
 62
     7
100
AcDbLine
 10
154.9286
 20
57.58811
 30
0.0
 11
154.1
 21
56.29999999999999
 31
0.0
  0
ARC
  5
BA
330
1C
100
AcDbEntity
  8
1
 62
     7
100
AcDbCircle
 10
169.4398
 20
56.75
 30
0.0
 40
0.4517579000000001
100
AcDbArc
 50
264.9438
 51
95.05621000000001
  0
LINE
  5
BB
330
1C
100
AcDbEntity
  8
1
 62
     7
100
AcDbLine
 10
168.3
 20
56.29999999999999
 30
0.0
 11
169.4
 21
56.29999999999999
 31
0.0
  0
LINE
  5
BC
330
1C
100
AcDbEntity
  8
1
 62
     7
100
AcDbLine
 10
168.3
 20
57.2
 30
0.0
 11
169.4
 21
57.2
 31
0.0
  0
LINE
  5
BD
330
1C
100
AcDbEntity
  8
1
 62
     7
100
AcDbLine
 10
168.3
 20
56.29999999999999
 30
0.0
 11
168.3
 21
57.2
 31
0.0
  0
LINE
  5
BE
330
1C
100
AcDbEntity
  8
1
 62
     7
100
AcDbLine
 10
169.4
 20
58.0
 30
0.0
 11
167.5
 21
58.0
 31
0.0
  0
LINE
  5
BF
330
1C
100
AcDbEntity
  8
1
 62
     7
100
AcDbLine
 10
0.0
 20
129.0
 30
0.0
 11
185.0
 21
129.0
 31
0.0
  0
LINE
  5
C0
330
1C
100
AcDbEntity
  8
1
 62
     7
100
AcDbLine
 10
16.0
 20
125.5
 30
0.0
 11
170.0
 21
125.5
 31
0.0
  0
ENDBLK
  5
C1
330
1C
100
AcDbEntity
  8
0
100
AcDbBlockEnd
  0
ENDSEC
  0
SECTION
  2
ENTITIES
  0
LINE
  5
C9
330
17
100
AcDbEntity
  8
1
 62
     7
100
AcDbLine
 10
0.0
 20
-102.0
 30
0.0
 11
211.0
 21
-102.0
 31
0.0
  0
CIRCLE
  5
CA
330
17
100
AcDbEntity
  8
1
  6
GESTRICHELT
 62
     7
100
AcDbCircle
 10
106.0
 20
-32.0
 30
0.0
 40
2.5
  0
CIRCLE
  5
CB
330
17
100
AcDbEntity
  8
1
  6
GESTRICHELT
 62
     7
100
AcDbCircle
 10
41.0
 20
-32.0
 30
0.0
 40
2.5
  0
CIRCLE
  5
CC
330
17
100
AcDbEntity
  8
1
  6
GESTRICHELT
 62
     7
100
AcDbCircle
 10
171.0
 20
-32.0
 30
0.0
 40
2.5
  0
LINE
  5
CE
330
17
100
AcDbEntity
  8
1
 62
     7
100
AcDbLine
 10
54.5
 20
88.0
 30
0.0
 11
156.5
 21
88.0
 31
0.0
  0
CIRCLE
  5
D1
330
17
100
AcDbEntity
  8
1
  6
GESTRICHELT
 62
     7
100
AcDbCircle
 10
106.0
 20
13.0
 30
0.0
 40
2.5
  0
CIRCLE
  5
D2
330
17
100
AcDbEntity
  8
1
  6
GESTRICHELT
 62
     7
100
AcDbCircle
 10
41.0
 20
13.0
 30
0.0
 40
2.5
  0
CIRCLE
  5
D3
330
17
100
AcDbEntity
  8
1
  6
GESTRICHELT
 62
     7
100
AcDbCircle
 10
171.0
 20
13.0
 30
0.0
 40
2.5
  0
LWPOLYLINE
  5
D5
330
17
100
AcDbEntity
  8
1
 62
     7
100
AcDbPolyline
 90
        4
 70
     1
 43
0.0
 10
95.0
 20
-117.5
 10
95.0
 20
-107.5
 10
125.0
 20
-107.5
 10
125.0
 20
-117.5
  0
LWPOLYLINE
  5
D6
330
17
100
AcDbEntity
  8
1
 62
     7
100
AcDbPolyline
 90
        4
 70
     1
 43
0.0
 10
95.0
 20
-117.5
 10
95.0
 20
-107.5
 10
125.0
 20
-107.5
 10
125.0
 20
-117.5
  0
ARC
  5
F9
330
17
100
AcDbEntity
  8
1
  6
Continuous
 62
     7
100
AcDbCircle
 10
45.65828690405149
 20
31.94681601667824
 30
0.0
 40
3.0
100
AcDbArc
 50
71.41615180121951
 51
97.01693511701181
  0
ARC
  5
FB
330
17
100
AcDbEntity
  8
1
  6
Continuous
 62
     7
100
AcDbCircle
 10
45.91049382716049
 20
14.37037037037037
 30
0.0
 40
20.05109523527645
100
AcDbArc
 50
78.23171106797939
 51
186.7891830880224
  0
ARC
  5
FC
330
17
100
AcDbEntity
  8
1
  6
Continuous
 62
     7
100
AcDbCircle
 10
106.0
 20
-4.749999999999978
 30
0.0
 40
39.74999999999998
100
AcDbArc
 50
90.00000000000003
 51
121.8907918018457
  0
ARC
  5
FD
330
17
100
AcDbEntity
  8
1
  6
Continuous
 62
     7
100
AcDbCircle
 10
36.78571428571443
 20
-32.07142857142809
 30
0.0
 40
67.37990071533272
100
AcDbArc
 50
67.10447453591548
 51
78.69006752597996
  0
ARC
  5
FE
330
17
100
AcDbEntity
  8
1
  6
Continuous
 62
     7
100
AcDbCircle
 10
75.89893617021276
 20
71.2765957446808
 30
0.0
 40
43.24511429737496
100
AcDbArc
 50
252.6459753637387
 51
282.1489002312617
  0
ARC
  5
FF
330
17
100
AcDbEntity
  8
1
  6
Continuous
 62
     7
100
AcDbCircle
 10
106.0
 20
-4.749999999999978
 30
0.0
 40
39.74999999999998
100
AcDbArc
 50
58.10920819815426
 51
89.99999999999998
  0
ARC
  5
100
330
17
100
AcDbEntity
  8
1
  6
Continuous
 62
     7
100
AcDbCircle
 10
136.1010638297872
 20
71.2765957446808
 30
0.0
 40
43.24511429737496
100
AcDbArc
 50
257.8510997687383
 51
287.3540246362613
  0
ARC
  5
101
330
17
100
AcDbEntity
  8
1
  6
Continuous
 62
     7
100
AcDbCircle
 10
175.2142857142855
 20
-32.07142857142809
 30
0.0
 40
67.37990071533272
100
AcDbArc
 50
101.30993247402
 51
112.8955254640845
  0
ARC
  5
102
330
17
100
AcDbEntity
  8
1
  6
Continuous
 62
     7
100
AcDbCircle
 10
166.0895061728395
 20
14.37037037037037
 30
0.0
 40
20.05109523527645
100
AcDbArc
 50
353.2108169119776
 51
101.7682889320206
  0
ARC
  5
103
330
17
100
AcDbEntity
  8
1
  6
Continuous
 62
     7
100
AcDbCircle
 10
166.0895061728395
 20
-35.37037037037038
 30
0.0
 40
20.05109523527645
100
AcDbArc
 50
258.2317110679794
 51
6.789183088022384
  0
ARC
  5
104
330
17
100
AcDbEntity
  8
1
  6
Continuous
 62
     7
100
AcDbCircle
 10
136.1010638297872
 20
-92.27659574468081
 30
0.0
 40
43.24511429737496
100
AcDbArc
 50
72.64597536373867
 51
102.1489002312617
  0
ARC
  5
105
330
17
100
AcDbEntity
  8
1
  6
Continuous
 62
     7
100
AcDbCircle
 10
106.0
 20
-16.25000000000002
 30
0.0
 40
39.74999999999998
100
AcDbArc
 50
270.0
 51
301.8907918018457
  0
ARC
  5
106
330
17
100
AcDbEntity
  8
1
  6
Continuous
 62
     7
100
AcDbCircle
 10
106.0
 20
-16.25000000000002
 30
0.0
 40
39.74999999999998
100
AcDbArc
 50
238.1092081981543
 51
270.0
  0
ARC
  5
107
330
17
100
AcDbEntity
  8
1
  6
Continuous
 62
     7
100
AcDbCircle
 10
75.89893617021276
 20
-92.27659574468081
 30
0.0
 40
43.24511429737496
100
AcDbArc
 50
77.85109976873828
 51
107.3540246362613
  0
ARC
  5
108
330
17
100
AcDbEntity
  8
1
  6
Continuous
 62
     7
100
AcDbCircle
 10
36.78571428571443
 20
11.07142857142808
 30
0.0
 40
67.37990071533272
100
AcDbArc
 50
281.3099324740201
 51
292.8955254640845
  0
ARC
  5
109
330
17
100
AcDbEntity
  8
1
  6
Continuous
 62
     7
100
AcDbCircle
 10
45.91049382716049
 20
-35.37037037037038
 30
0.0
 40
20.05109523527645
100
AcDbArc
 50
173.2108169119776
 51
281.7682889320206
  0
LINE
  5
10A
330
17
100
AcDbEntity
  8
1
  6
Continuous
 62
     7
100
AcDbLine
 10
26.0
 20
12.0
 30
0.0
 11
26.0
 21
-34.0
 31
0.0
  0
LINE
  5
10B
330
17
100
AcDbEntity
  8
1
  6
Continuous
 62
     7
100
AcDbLine
 10
186.0
 20
12.0
 30
0.0
 11
186.0
 21
-33.0
 31
0.0
  0
ARC
  5
10D
330
17
100
AcDbEntity
  8
1
  6
Continuous
 62
     7
100
AcDbCircle
 10
175.2142857142855
 20
11.07142857142808
 30
0.0
 40
67.37990071533272
100
AcDbArc
 50
247.1044745359154
 51
258.69006752598
  0
ARC
  5
10F
330
17
100
AcDbEntity
  8
1
  6
Continuous
 62
     7
100
AcDbCircle
 10
105.5000000000011
 20
-1652.136483131016
 30
0.0
 40
1782.261730388609
100
AcDbArc
 50
86.60642412754661
 51
93.3935758724534
  0
ARC
  5
110
330
17
100
AcDbEntity
  8
1
  6
Continuous
 62
     7
100
AcDbCircle
 10
105.0
 20
-386.9999999999941
 30
0.0
 40
492.4439054349177
100
AcDbArc
 50
84.28940686250033
 51
95.71059313749973
  0
LINE
  5
115
330
17
100
AcDbEntity
  8
1
 62
     7
100
AcDbLine
 10
211.0
 20
127.0
 30
0.0
 11
211.0
 21
-149.0
 31
0.0
  0
LINE
  5
116
330
17
100
AcDbEntity
  8
1
 62
     7
100
AcDbLine
 10
211.0
 20
-149.0
 30
0.0
 11
0.0
 21
-149.0
 31
0.0
  0
LINE
  5
117
330
17
100
AcDbEntity
  8
1
 62
     7
100
AcDbLine
 10
0.0
 20
-149.0
 30
0.0
 11
0.0
 21
127.0
 31
0.0
  0
ARC
  5
118
330
17
100
AcDbEntity
  8
1
 62
     7
100
AcDbCircle
 10
154.5000001284662
 20
101.0000001284662
 30
0.0
 40
1.999999871533737
100
AcDbArc
 50
359.9999963197122
 51
75.96375912992343
  0
LINE
  5
119
330
17
100
AcDbEntity
  8
1
 62
     7
100
AcDbLine
 10
156.5
 20
101.0
 30
0.0
 11
156.5
 21
70.0
 31
0.0
  0
ARC
  5
11A
330
17
100
AcDbEntity
  8
1
 62
     7
100
AcDbCircle
 10
154.5000001284663
 20
69.99999987153373
 30
0.0
 40
1.999999871533706
100
AcDbArc
 50
269.9999963197114
 51
0.0000036802877405
  0
LINE
  5
11B
330
17
100
AcDbEntity
  8
1
 62
     7
100
AcDbLine
 10
154.5
 20
68.0
 30
0.0
 11
56.5
 21
68.0
 31
0.0
  0
ARC
  5
11C
330
17
100
AcDbEntity
  8
1
 62
     7
100
AcDbCircle
 10
56.50000021295509
 20
70.00000021295509
 30
0.0
 40
2.000000212955097
100
AcDbArc
 50
180.0000061007131
 51
269.9999938992866
  0
LINE
  5
11D
330
17
100
AcDbEntity
  8
1
 62
     7
100
AcDbLine
 10
54.5
 20
70.0
 30
0.0
 11
54.5
 21
101.0
 31
0.0
  0
ARC
  5
11E
330
17
100
AcDbEntity
  8
1
 62
     7
100
AcDbCircle
 10
56.49999987153371
 20
101.0000001284662
 30
0.0
 40
1.99999987153372
100
AcDbArc
 50
89.99999631971185
 51
180.0000036802877
  0
LINE
  5
11F
330
17
100
AcDbEntity
  8
1
 62
     7
100
AcDbLine
 10
56.5
 20
103.0
 30
0.0
 11
57.0
 21
103.0
 31
0.0
  0
LWPOLYLINE
  5
121
330
17
100
AcDbEntity
  8
1
 62
     7
100
AcDbPolyline
 90
        4
 70
     1
 43
0.0
 10
136.0
 20
39.5
 10
136.0
 20
49.5
 10
166.0
 20
49.5
 10
166.0
 20
39.5
  0
LWPOLYLINE
  5
122
330
17
100
AcDbEntity
  8
1
 62
     7
100
AcDbPolyline
 90
        4
 70
     1
 43
0.0
 10
136.0
 20
39.5
 10
136.0
 20
49.5
 10
166.0
 20
49.5
 10
166.0
 20
39.5
  0
ENDSEC
  0
SECTION
  2
OBJECTS
  0
DICTIONARY
  5
C
330
0
100
AcDbDictionary
281
     1
  3
ACAD_COLOR
350
145
  3
ACAD_GROUP
350
D
  3
ACAD_LAYOUT
350
148
  3
ACAD_MATERIAL
350
144
  3
ACAD_MLINESTYLE
350
1A
  3
ACAD_PLOTSETTINGS
350
149
  3
ACAD_PLOTSTYLENAME
350
142
  3
ACAD_TABLESTYLE
350
146
  3
ACDBVARIABLEDICTIONARY
350
37
  3
ASE_INDEX_DICTIONARY
350
155
  0
DICTIONARY
  5
145
102
{ACAD_REACTORS
330
C
102
}
330
C
100
AcDbDictionary
281
     1
  0
DICTIONARY
  5
D
102
{ACAD_REACTORS
330
C
102
}
330
C
100
AcDbDictionary
281
     1
  0
DICTIONARY
  5
148
102
{ACAD_REACTORS
330
C
102
}
330
C
100
AcDbDictionary
281
     1
  3
Layout1
350
14B
  3
Model
350
14A
  0
DICTIONARY
  5
144
102
{ACAD_REACTORS
330
C
102
}
330
C
100
AcDbDictionary
281
     1
  0
DICTIONARY
  5
1A
102
{ACAD_REACTORS
330
C
102
}
330
C
100
AcDbDictionary
281
     1
  3
STANDARD
350
1B
  0
DICTIONARY
  5
149
102
{ACAD_REACTORS
330
C
102
}
330
C
100
AcDbDictionary
281
     1
  0
ACDBDICTIONARYWDFLT
  5
142
102
{ACAD_REACTORS
330
C
102
}
330
C
100
AcDbDictionary
281
     1
  3
Normal
350
143
100
AcDbDictionaryWithDefault
340
143
  0
DICTIONARY
  5
146
102
{ACAD_REACTORS
330
C
102
}
330
C
100
AcDbDictionary
281
     1
  3
Standard
350
147
  0
DICTIONARY
  5
37
102
{ACAD_REACTORS
330
C
102
}
330
C
100
AcDbDictionary
281
     1
  3
CTABLESTYLE
350
14F
  3
DIMADEC
350
38
  0
DICTIONARY
  5
155
102
{ACAD_REACTORS
330
C
102
}
330
C
100
AcDbDictionary
281
     1
  3
ASEBlockHierarchyIndexRecord
350
157
1001
DCO15
1040
1633402413.156
  0
LAYOUT
  5
14B
102
{ACAD_REACTORS
330
148
102
}
330
148
100
AcDbPlotSettings
  1

  2
C:\Dokumente und Einstellungen\lenker\Anwendungsdaten\Autodesk\Autodesk Mechanical Desktop 2006\R16.2\deu\plotters\HP Business Inkjet 1200 Series.pc3
  4

  6

 40
0.0
 41
0.0
 42
0.0
 43
0.0
 44
0.0
 45
0.0
 46
0.0
 47
0.0
 48
0.0
 49
0.0
140
0.0
141
0.0
142
1.0
143
1.0
 70
   688
 72
     0
 73
     0
 74
     5
  7

 75
    16
147
1.0
 76
     0
 77
     2
 78
   300
148
0.0
149
0.0
100
AcDbLayout
  1
Layout1
 70
     0
 71
     1
 10
0.0
 20
0.0
 11
12.0
 21
9.0
 12
0.0
 22
0.0
 32
0.0
 14
1.000000000000000E+20
 24
1.000000000000000E+20
 34
1.000000000000000E+20
 15
-1.000000000000000E+20
 25
-1.000000000000000E+20
 35
-1.000000000000000E+20
146
0.0
 13
0.0
 23
0.0
 33
0.0
 16
1.0
 26
0.0
 36
0.0
 17
0.0
 27
1.0
 37
0.0
 76
     0
330
14
  0
LAYOUT
  5
14A
102
{ACAD_REACTORS
330
148
102
}
330
148
100
AcDbPlotSettings
  1

  2
C:\Dokumente und Einstellungen\lenker\Anwendungsdaten\Autodesk\Autodesk Mechanical Desktop 2006\R16.2\deu\plotters\HP Business Inkjet 1200 Series.pc3
  4

  6

 40
0.0
 41
0.0
 42
0.0
 43
0.0
 44
0.0
 45
0.0
 46
0.0
 47
0.0
 48
0.0
 49
0.0
140
0.0
141
0.0
142
1.0
143
1.0
 70
  1712
 72
     0
 73
     0
 74
     0
  7

 75
     0
147
1.0
 76
     0
 77
     2
 78
   300
148
0.0
149
0.0
100
AcDbLayout
  1
Model
 70
     1
 71
     0
 10
0.0
 20
0.0
 11
12.0
 21
9.0
 12
0.0
 22
0.0
 32
0.0
 14
0.0
 24
0.0
 34
0.0
 15
0.0
 25
0.0
 35
0.0
146
0.0
 13
0.0
 23
0.0
 33
0.0
 16
1.0
 26
0.0
 36
0.0
 17
0.0
 27
1.0
 37
0.0
 76
     0
330
17
  0
MLINESTYLE
  5
1B
102
{ACAD_REACTORS
330
1A
102
}
330
1A
100
AcDbMlineStyle
  2
STANDARD
 70
     0
  3

 62
   256
 51
90.0
 52
90.0
 71
     2
 49
0.5
 62
   256
  6
BYLAYER
 49
-0.5
 62
   256
  6
BYLAYER
  0
ACDBPLACEHOLDER
  5
143
102
{ACAD_REACTORS
330
142
102
}
330
142
  0
TABLESTYLE
  5
147
102
{ACAD_REACTORS
330
146
102
}
330
146
100
AcDbTableStyle
  3
Standard
 70
     0
 71
     0
 40
0.06
 41
0.06
280
     0
281
     0
  7
STANDARD
140
0.18
170
     2
 62
     0
 63
     7
283
     0
274
    -2
284
     1
 64
     0
275
    -2
285
     1
 65
     0
276
    -2
286
     1
 66
     0
277
    -2
287
     1
 67
     0
278
    -2
288
     1
 68
     0
279
    -2
289
     1
 69
     0
  7
STANDARD
140
0.25
170
     5
 62
     0
 63
     7
283
     0
274
    -2
284
     1
 64
     0
275
    -2
285
     1
 65
     0
276
    -2
286
     1
 66
     0
277
    -2
287
     1
 67
     0
278
    -2
288
     1
 68
     0
279
    -2
289
     1
 69
     0
  7
STANDARD
140
0.18
170
     5
 62
     0
 63
     7
283
     0
274
    -2
284
     1
 64
     0
275
    -2
285
     1
 65
     0
276
    -2
286
     1
 66
     0
277
    -2
287
     1
 67
     0
278
    -2
288
     1
 68
     0
279
    -2
289
     1
 69
     0
  0
DICTIONARYVAR
  5
14F
102
{ACAD_REACTORS
330
37
102
}
330
37
100
DictionaryVariables
280
     0
  1
STANDARD
  0
DICTIONARYVAR
  5
38
102
{ACAD_REACTORS
330
37
102
}
330
37
100
DictionaryVariables
280
     0
  1
0
  0
XRECORD
  5
157
102
{ACAD_REACTORS
330
155
102
}
330
155
100
AcDbXrecord
280
     1
  0
ENDSEC
  0
EOF
