ISO-10303-21;
HEADER;
FILE_DESCRIPTION(('STEP AP203'),'1');
FILE_NAME('isotp80m16.stp','2024-09-23T12:14:36',('TraceParts'),('TraceParts S.A.'),'Spatial InterOp 3D',' ',' ');
FILE_SCHEMA(('CONFIG_CONTROL_DESIGN'));
ENDSEC;
DATA;
#1=DESIGN_CONTEXT('',#27,'design');
#2=APPLICATION_PROTOCOL_DEFINITION('INTERNATIONAL STANDARD','config_control_design',1994,#27);
#3=PRODUCT_CATEGORY_RELATIONSHIP('NONE','NONE',#28,#29);
#4=DATE_AND_TIME(#30,#31);
#5=DATE_TIME_ROLE('creation_date');
#6=DATE_TIME_ROLE('classification_date');
#7=PERSON_AND_ORGANIZATION_ROLE('creator');
#8=PERSON_AND_ORGANIZATION_ROLE('design_supplier');
#9=PERSON_AND_ORGANIZATION_ROLE('classification_officer');
#10=PERSON_AND_ORGANIZATION_ROLE('design_owner');
#11=APPROVAL_PERSON_ORGANIZATION(#32,#33,#34);
#12=APPROVAL_DATE_TIME(#4,#33);
#13=CC_DESIGN_APPROVAL(#33,(#35,#36,#37));
#14=CC_DESIGN_DATE_AND_TIME_ASSIGNMENT(#4,#5,(#37));
#15=CC_DESIGN_DATE_AND_TIME_ASSIGNMENT(#4,#6,(#35));
#16=CC_DESIGN_PERSON_AND_ORGANIZATION_ASSIGNMENT(#32,#10,(#38));
#17=CC_DESIGN_PERSON_AND_ORGANIZATION_ASSIGNMENT(#32,#7,(#37));
#18=CC_DESIGN_PERSON_AND_ORGANIZATION_ASSIGNMENT(#32,#7,(#36));
#19=CC_DESIGN_PERSON_AND_ORGANIZATION_ASSIGNMENT(#32,#8,(#36));
#20=CC_DESIGN_SECURITY_CLASSIFICATION(#35,(#36));
#21=CC_DESIGN_PERSON_AND_ORGANIZATION_ASSIGNMENT(#32,#9,(#35));
#22=SHAPE_DEFINITION_REPRESENTATION(#39,#40);
#23= (GEOMETRIC_REPRESENTATION_CONTEXT(3)GLOBAL_UNCERTAINTY_ASSIGNED_CONTEXT((#43))GLOBAL_UNIT_ASSIGNED_CONTEXT((#45,#46,#47))REPRESENTATION_CONTEXT('NONE','WORKSPACE'));
#27=APPLICATION_CONTEXT('CONFIGURATION CONTROLLED 3D DESIGNS OF MECHANICAL PARTS AND ASSEMBLIES');
#28=PRODUCT_CATEGORY('part','NONE');
#29=PRODUCT_RELATED_PRODUCT_CATEGORY('detail',' ',(#38));
#30=CALENDAR_DATE(2024,23,8);
#31=LOCAL_TIME(14,14,36.0,#49);
#32=PERSON_AND_ORGANIZATION(#50,#51);
#33=APPROVAL(#52,'SOLID MODEL');
#34=APPROVAL_ROLE('APPROVED');
#35=SECURITY_CLASSIFICATION('','',#53);
#36=PRODUCT_DEFINITION_FORMATION_WITH_SPECIFIED_SOURCE(' ','NONE',#38,.NOT_KNOWN.);
#37=PRODUCT_DEFINITION('','NONE',#36,#1);
#38=PRODUCT('1','','PART--DESC',(#54));
#39=PRODUCT_DEFINITION_SHAPE('NONE','NONE',#37);
#40=ADVANCED_BREP_SHAPE_REPRESENTATION('1',(#55,#56),#23);
#43=UNCERTAINTY_MEASURE_WITH_UNIT(LENGTH_MEASURE(1.0E-06),#45,'','');
#45= (CONVERSION_BASED_UNIT('MILLIMETRE',#59)LENGTH_UNIT()NAMED_UNIT(#62));
#46= (NAMED_UNIT(#64)PLANE_ANGLE_UNIT()SI_UNIT($,.RADIAN.));
#47= (NAMED_UNIT(#64)SOLID_ANGLE_UNIT()SI_UNIT($,.STERADIAN.));
#49=COORDINATED_UNIVERSAL_TIME_OFFSET(1,0,.AHEAD.);
#50=PERSON('','UNSPECIFIED',$,$,$,$);
#51=ORGANIZATION('UNSPECIFIED','UNSPECIFIED','UNSPECIFIED');
#52=APPROVAL_STATUS('approved');
#53=SECURITY_CLASSIFICATION_LEVEL('unclassified');
#54=MECHANICAL_CONTEXT('',#27,'mechanical');
#55=MANIFOLD_SOLID_BREP('1',#70);
#56=AXIS2_PLACEMENT_3D('',#71,#72,#73);
#59=LENGTH_MEASURE_WITH_UNIT(LENGTH_MEASURE(1.0),#74);
#62=DIMENSIONAL_EXPONENTS(1.0,0.0,0.0,0.0,0.0,0.0,0.0);
#64=DIMENSIONAL_EXPONENTS(0.0,0.0,0.0,0.0,0.0,0.0,0.0);
#70=CLOSED_SHELL('',(#75,#76,#77,#78,#79,#80,#81,#82,#83,#84,#85,#86,#87,#88,#89,#90,#91,#92,#93,#94));
#71=CARTESIAN_POINT('',(0.0,0.0,0.0));
#72=DIRECTION('',(0.0,0.0,1.0));
#73=DIRECTION('',(1.0,0.0,0.0));
#74= (NAMED_UNIT(#62)LENGTH_UNIT()SI_UNIT(.MILLI.,.METRE.));
#75=ADVANCED_FACE('',(#96),#97,.T.);
#76=ADVANCED_FACE('',(#98),#99,.F.);
#77=ADVANCED_FACE('',(#100),#101,.T.);
#78=ADVANCED_FACE('',(#102),#103,.F.);
#79=ADVANCED_FACE('',(#104),#105,.F.);
#80=ADVANCED_FACE('',(#106),#107,.F.);
#81=ADVANCED_FACE('',(#108,#109),#110,.F.);
#82=ADVANCED_FACE('',(#111),#112,.T.);
#83=ADVANCED_FACE('',(#113,#114),#115,.T.);
#84=ADVANCED_FACE('',(#116,#117),#118,.F.);
#85=ADVANCED_FACE('',(#119),#120,.F.);
#86=ADVANCED_FACE('',(#121),#122,.F.);
#87=ADVANCED_FACE('',(#123),#124,.F.);
#88=ADVANCED_FACE('',(#125),#126,.F.);
#89=ADVANCED_FACE('',(#127),#128,.F.);
#90=ADVANCED_FACE('',(#129),#130,.F.);
#91=ADVANCED_FACE('',(#131),#132,.F.);
#92=ADVANCED_FACE('',(#133),#134,.F.);
#93=ADVANCED_FACE('',(#135,#136),#137,.F.);
#94=ADVANCED_FACE('',(#138),#139,.T.);
#96=FACE_OUTER_BOUND('',#140,.T.);
#97=CONICAL_SURFACE('',#141,26.0,0.126308117063241);
#98=FACE_OUTER_BOUND('',#142,.T.);
#99=CYLINDRICAL_SURFACE('',#143,7.99999999999999);
#100=FACE_OUTER_BOUND('',#144,.T.);
#101=CONICAL_SURFACE('',#145,30.0,0.126308117063241);
#102=FACE_OUTER_BOUND('',#146,.T.);
#103=CYLINDRICAL_SURFACE('',#147,7.99999999999999);
#104=FACE_OUTER_BOUND('',#148,.T.);
#105=PLANE('',#149);
#106=FACE_OUTER_BOUND('',#150,.T.);
#107=CYLINDRICAL_SURFACE('',#151,7.99999999999999);
#108=FACE_OUTER_BOUND('',#152,.T.);
#109=FACE_BOUND('',#153,.T.);
#110=PLANE('',#154);
#111=FACE_OUTER_BOUND('',#155,.T.);
#112=CONICAL_SURFACE('',#156,30.0,0.126308117063241);
#113=FACE_OUTER_BOUND('',#157,.T.);
#114=FACE_BOUND('',#158,.T.);
#115=PLANE('',#159);
#116=FACE_OUTER_BOUND('',#160,.T.);
#117=FACE_BOUND('',#161,.T.);
#118=PLANE('',#162);
#119=FACE_OUTER_BOUND('',#163,.T.);
#120=PLANE('',#164);
#121=FACE_OUTER_BOUND('',#165,.T.);
#122=PLANE('',#166);
#123=FACE_OUTER_BOUND('',#167,.T.);
#124=PLANE('',#168);
#125=FACE_OUTER_BOUND('',#169,.T.);
#126=PLANE('',#170);
#127=FACE_OUTER_BOUND('',#171,.T.);
#128=PLANE('',#172);
#129=FACE_OUTER_BOUND('',#173,.T.);
#130=PLANE('',#174);
#131=FACE_OUTER_BOUND('',#175,.T.);
#132=PLANE('',#176);
#133=FACE_OUTER_BOUND('',#177,.T.);
#134=CYLINDRICAL_SURFACE('',#178,7.99999999999999);
#135=FACE_OUTER_BOUND('',#179,.T.);
#136=FACE_BOUND('',#180,.T.);
#137=PLANE('',#181);
#138=FACE_OUTER_BOUND('',#182,.T.);
#139=CONICAL_SURFACE('',#183,26.0,0.126308117063241);
#140=EDGE_LOOP('',(#184,#185,#186,#187));
#141=AXIS2_PLACEMENT_3D('',#188,#189,#190);
#142=EDGE_LOOP('',(#191,#192,#193,#194));
#143=AXIS2_PLACEMENT_3D('',#195,#196,#197);
#144=EDGE_LOOP('',(#198,#199,#200,#201));
#145=AXIS2_PLACEMENT_3D('',#202,#203,#204);
#146=EDGE_LOOP('',(#205,#206,#207,#208));
#147=AXIS2_PLACEMENT_3D('',#209,#210,#211);
#148=EDGE_LOOP('',(#212,#213));
#149=AXIS2_PLACEMENT_3D('',#214,#215,#216);
#150=EDGE_LOOP('',(#217,#218,#219,#220));
#151=AXIS2_PLACEMENT_3D('',#221,#222,#223);
#152=EDGE_LOOP('',(#224,#225));
#153=EDGE_LOOP('',(#226,#227));
#154=AXIS2_PLACEMENT_3D('',#228,#229,#230);
#155=EDGE_LOOP('',(#231,#232,#233,#234));
#156=AXIS2_PLACEMENT_3D('',#235,#236,#237);
#157=EDGE_LOOP('',(#238,#239,#240,#241,#242,#243));
#158=EDGE_LOOP('',(#244,#245));
#159=AXIS2_PLACEMENT_3D('',#246,#247,#248);
#160=EDGE_LOOP('',(#249,#250,#251,#252,#253,#254));
#161=EDGE_LOOP('',(#255,#256));
#162=AXIS2_PLACEMENT_3D('',#257,#258,#259);
#163=EDGE_LOOP('',(#260,#261,#262,#263));
#164=AXIS2_PLACEMENT_3D('',#264,#265,#266);
#165=EDGE_LOOP('',(#267,#268,#269,#270));
#166=AXIS2_PLACEMENT_3D('',#271,#272,#273);
#167=EDGE_LOOP('',(#274,#275,#276,#277));
#168=AXIS2_PLACEMENT_3D('',#278,#279,#280);
#169=EDGE_LOOP('',(#281,#282,#283,#284));
#170=AXIS2_PLACEMENT_3D('',#285,#286,#287);
#171=EDGE_LOOP('',(#288,#289,#290,#291));
#172=AXIS2_PLACEMENT_3D('',#292,#293,#294);
#173=EDGE_LOOP('',(#295,#296,#297,#298));
#174=AXIS2_PLACEMENT_3D('',#299,#300,#301);
#175=EDGE_LOOP('',(#302,#303));
#176=AXIS2_PLACEMENT_3D('',#304,#305,#306);
#177=EDGE_LOOP('',(#307,#308,#309,#310));
#178=AXIS2_PLACEMENT_3D('',#311,#312,#313);
#179=EDGE_LOOP('',(#314,#315));
#180=EDGE_LOOP('',(#316,#317));
#181=AXIS2_PLACEMENT_3D('',#318,#319,#320);
#182=EDGE_LOOP('',(#321,#322,#323,#324));
#183=AXIS2_PLACEMENT_3D('',#325,#326,#327);
#184=ORIENTED_EDGE('',*,*,#328,.T.);
#185=ORIENTED_EDGE('',*,*,#329,.T.);
#186=ORIENTED_EDGE('',*,*,#330,.F.);
#187=ORIENTED_EDGE('',*,*,#331,.F.);
#188=CARTESIAN_POINT('',(9.10729824887824E-15,-40.0,0.0));
#189=DIRECTION('',(-0.0,1.0,-0.0));
#190=DIRECTION('',(0.0,0.0,1.0));
#191=ORIENTED_EDGE('',*,*,#332,.F.);
#192=ORIENTED_EDGE('',*,*,#333,.T.);
#193=ORIENTED_EDGE('',*,*,#334,.T.);
#194=ORIENTED_EDGE('',*,*,#335,.F.);
#195=CARTESIAN_POINT('',(9.10729824887824E-15,20.0,0.0));
#196=DIRECTION('',(0.0,-1.0,0.0));
#197=DIRECTION('',(0.0,0.0,1.0));
#198=ORIENTED_EDGE('',*,*,#336,.F.);
#199=ORIENTED_EDGE('',*,*,#337,.T.);
#200=ORIENTED_EDGE('',*,*,#338,.T.);
#201=ORIENTED_EDGE('',*,*,#339,.F.);
#202=CARTESIAN_POINT('',(9.10729824887824E-15,8.5,0.0));
#203=DIRECTION('',(-0.0,-1.0,-0.0));
#204=DIRECTION('',(0.0,0.0,-1.0));
#205=ORIENTED_EDGE('',*,*,#340,.F.);
#206=ORIENTED_EDGE('',*,*,#341,.T.);
#207=ORIENTED_EDGE('',*,*,#342,.T.);
#208=ORIENTED_EDGE('',*,*,#343,.F.);
#209=CARTESIAN_POINT('',(9.10729824887824E-15,20.0,0.0));
#210=DIRECTION('',(0.0,-1.0,0.0));
#211=DIRECTION('',(0.0,0.0,1.0));
#212=ORIENTED_EDGE('',*,*,#344,.T.);
#213=ORIENTED_EDGE('',*,*,#340,.T.);
#214=CARTESIAN_POINT('',(9.10729824887824E-15,20.0,0.0));
#215=DIRECTION('',(0.0,-1.0,0.0));
#216=DIRECTION('',(0.0,0.0,-1.0));
#217=ORIENTED_EDGE('',*,*,#341,.F.);
#218=ORIENTED_EDGE('',*,*,#344,.F.);
#219=ORIENTED_EDGE('',*,*,#343,.T.);
#220=ORIENTED_EDGE('',*,*,#345,.T.);
#221=CARTESIAN_POINT('',(9.10729824887824E-15,20.0,0.0));
#222=DIRECTION('',(0.0,-1.0,0.0));
#223=DIRECTION('',(0.0,0.0,1.0));
#224=ORIENTED_EDGE('',*,*,#346,.T.);
#225=ORIENTED_EDGE('',*,*,#336,.T.);
#226=ORIENTED_EDGE('',*,*,#345,.F.);
#227=ORIENTED_EDGE('',*,*,#342,.F.);
#228=CARTESIAN_POINT('',(8.0,40.0,0.0));
#229=DIRECTION('',(0.0,-1.0,0.0));
#230=DIRECTION('',(0.0,0.0,-1.0));
#231=ORIENTED_EDGE('',*,*,#337,.F.);
#232=ORIENTED_EDGE('',*,*,#346,.F.);
#233=ORIENTED_EDGE('',*,*,#339,.T.);
#234=ORIENTED_EDGE('',*,*,#347,.T.);
#235=CARTESIAN_POINT('',(9.10729824887824E-15,8.5,0.0));
#236=DIRECTION('',(-0.0,-1.0,-0.0));
#237=DIRECTION('',(0.0,0.0,-1.0));
#238=ORIENTED_EDGE('',*,*,#348,.T.);
#239=ORIENTED_EDGE('',*,*,#349,.T.);
#240=ORIENTED_EDGE('',*,*,#350,.T.);
#241=ORIENTED_EDGE('',*,*,#351,.T.);
#242=ORIENTED_EDGE('',*,*,#352,.T.);
#243=ORIENTED_EDGE('',*,*,#353,.T.);
#244=ORIENTED_EDGE('',*,*,#347,.F.);
#245=ORIENTED_EDGE('',*,*,#338,.F.);
#246=CARTESIAN_POINT('',(32.5,8.5,18.7638837486628));
#247=DIRECTION('',(-0.0,1.0,0.0));
#248=DIRECTION('',(1.0,0.0,0.0));
#249=ORIENTED_EDGE('',*,*,#354,.F.);
#250=ORIENTED_EDGE('',*,*,#355,.F.);
#251=ORIENTED_EDGE('',*,*,#356,.F.);
#252=ORIENTED_EDGE('',*,*,#357,.F.);
#253=ORIENTED_EDGE('',*,*,#358,.F.);
#254=ORIENTED_EDGE('',*,*,#359,.F.);
#255=ORIENTED_EDGE('',*,*,#330,.T.);
#256=ORIENTED_EDGE('',*,*,#360,.T.);
#257=CARTESIAN_POINT('',(32.5,-8.5,18.7638837486628));
#258=DIRECTION('',(-0.0,1.0,0.0));
#259=DIRECTION('',(1.0,0.0,0.0));
#260=ORIENTED_EDGE('',*,*,#354,.T.);
#261=ORIENTED_EDGE('',*,*,#361,.F.);
#262=ORIENTED_EDGE('',*,*,#348,.F.);
#263=ORIENTED_EDGE('',*,*,#362,.T.);
#264=CARTESIAN_POINT('',(3.69401177873483E-15,8.5,37.5277674973257));
#265=DIRECTION('',(-0.5,0.0,-0.866025403784439));
#266=DIRECTION('',(-0.866025403784439,0.0,0.5));
#267=ORIENTED_EDGE('',*,*,#359,.T.);
#268=ORIENTED_EDGE('',*,*,#363,.F.);
#269=ORIENTED_EDGE('',*,*,#349,.F.);
#270=ORIENTED_EDGE('',*,*,#361,.T.);
#271=CARTESIAN_POINT('',(32.5,8.5,18.7638837486628));
#272=DIRECTION('',(-1.0,0.0,3.69800516612224E-16));
#273=DIRECTION('',(0.0,1.0,0.0));
#274=ORIENTED_EDGE('',*,*,#358,.T.);
#275=ORIENTED_EDGE('',*,*,#364,.F.);
#276=ORIENTED_EDGE('',*,*,#350,.F.);
#277=ORIENTED_EDGE('',*,*,#363,.T.);
#278=CARTESIAN_POINT('',(32.5,8.5,-18.7638837486628));
#279=DIRECTION('',(-0.5,0.0,0.866025403784439));
#280=DIRECTION('',(0.0,1.0,0.0));
#281=ORIENTED_EDGE('',*,*,#357,.T.);
#282=ORIENTED_EDGE('',*,*,#365,.F.);
#283=ORIENTED_EDGE('',*,*,#351,.F.);
#284=ORIENTED_EDGE('',*,*,#364,.T.);
#285=CARTESIAN_POINT('',(-1.28862386368112E-14,8.5,-37.5277674973257));
#286=DIRECTION('',(0.5,0.0,0.866025403784439));
#287=DIRECTION('',(-0.0,-1.0,0.0));
#288=ORIENTED_EDGE('',*,*,#356,.T.);
#289=ORIENTED_EDGE('',*,*,#366,.F.);
#290=ORIENTED_EDGE('',*,*,#352,.F.);
#291=ORIENTED_EDGE('',*,*,#365,.T.);
#292=CARTESIAN_POINT('',(-32.5,8.5,-18.7638837486628));
#293=DIRECTION('',(1.0,0.0,-1.84900258306112E-16));
#294=DIRECTION('',(-1.84900258306112E-16,0.0,-1.0));
#295=ORIENTED_EDGE('',*,*,#355,.T.);
#296=ORIENTED_EDGE('',*,*,#362,.F.);
#297=ORIENTED_EDGE('',*,*,#353,.F.);
#298=ORIENTED_EDGE('',*,*,#366,.T.);
#299=CARTESIAN_POINT('',(-32.5,8.5,18.7638837486628));
#300=DIRECTION('',(0.5,0.0,-0.866025403784439));
#301=DIRECTION('',(0.0,-1.0,0.0));
#302=ORIENTED_EDGE('',*,*,#367,.F.);
#303=ORIENTED_EDGE('',*,*,#334,.F.);
#304=CARTESIAN_POINT('',(8.0,-20.0,0.0));
#305=DIRECTION('',(0.0,1.0,0.0));
#306=DIRECTION('',(1.0,0.0,-0.0));
#307=ORIENTED_EDGE('',*,*,#333,.F.);
#308=ORIENTED_EDGE('',*,*,#368,.F.);
#309=ORIENTED_EDGE('',*,*,#335,.T.);
#310=ORIENTED_EDGE('',*,*,#367,.T.);
#311=CARTESIAN_POINT('',(9.10729824887824E-15,20.0,0.0));
#312=DIRECTION('',(0.0,-1.0,0.0));
#313=DIRECTION('',(0.0,0.0,1.0));
#314=ORIENTED_EDGE('',*,*,#328,.F.);
#315=ORIENTED_EDGE('',*,*,#369,.F.);
#316=ORIENTED_EDGE('',*,*,#368,.T.);
#317=ORIENTED_EDGE('',*,*,#332,.T.);
#318=CARTESIAN_POINT('',(26.0,-40.0,0.0));
#319=DIRECTION('',(0.0,1.0,0.0));
#320=DIRECTION('',(1.0,0.0,-0.0));
#321=ORIENTED_EDGE('',*,*,#329,.F.);
#322=ORIENTED_EDGE('',*,*,#369,.T.);
#323=ORIENTED_EDGE('',*,*,#331,.T.);
#324=ORIENTED_EDGE('',*,*,#360,.F.);
#325=CARTESIAN_POINT('',(9.10729824887824E-15,-40.0,0.0));
#326=DIRECTION('',(-0.0,1.0,-0.0));
#327=DIRECTION('',(0.0,0.0,1.0));
#328=EDGE_CURVE('',#370,#371,#372,.T.);
#329=EDGE_CURVE('',#371,#373,#374,.T.);
#330=EDGE_CURVE('',#375,#373,#376,.T.);
#331=EDGE_CURVE('',#370,#375,#377,.T.);
#332=EDGE_CURVE('',#378,#379,#380,.T.);
#333=EDGE_CURVE('',#378,#381,#382,.T.);
#334=EDGE_CURVE('',#381,#383,#384,.T.);
#335=EDGE_CURVE('',#379,#383,#385,.T.);
#336=EDGE_CURVE('',#386,#387,#388,.T.);
#337=EDGE_CURVE('',#386,#389,#390,.T.);
#338=EDGE_CURVE('',#389,#391,#392,.T.);
#339=EDGE_CURVE('',#387,#391,#393,.T.);
#340=EDGE_CURVE('',#394,#395,#396,.T.);
#341=EDGE_CURVE('',#394,#397,#398,.T.);
#342=EDGE_CURVE('',#397,#399,#400,.T.);
#343=EDGE_CURVE('',#395,#399,#401,.T.);
#344=EDGE_CURVE('',#395,#394,#402,.T.);
#345=EDGE_CURVE('',#399,#397,#403,.T.);
#346=EDGE_CURVE('',#387,#386,#404,.T.);
#347=EDGE_CURVE('',#391,#389,#405,.T.);
#348=EDGE_CURVE('',#406,#407,#408,.T.);
#349=EDGE_CURVE('',#407,#409,#410,.T.);
#350=EDGE_CURVE('',#409,#411,#412,.T.);
#351=EDGE_CURVE('',#411,#413,#414,.T.);
#352=EDGE_CURVE('',#413,#415,#416,.T.);
#353=EDGE_CURVE('',#415,#406,#417,.T.);
#354=EDGE_CURVE('',#418,#419,#420,.T.);
#355=EDGE_CURVE('',#421,#418,#422,.T.);
#356=EDGE_CURVE('',#423,#421,#424,.T.);
#357=EDGE_CURVE('',#425,#423,#426,.T.);
#358=EDGE_CURVE('',#427,#425,#428,.T.);
#359=EDGE_CURVE('',#419,#427,#429,.T.);
#360=EDGE_CURVE('',#373,#375,#430,.T.);
#361=EDGE_CURVE('',#407,#419,#431,.T.);
#362=EDGE_CURVE('',#406,#418,#432,.T.);
#363=EDGE_CURVE('',#409,#427,#433,.T.);
#364=EDGE_CURVE('',#411,#425,#434,.T.);
#365=EDGE_CURVE('',#413,#423,#435,.T.);
#366=EDGE_CURVE('',#415,#421,#436,.T.);
#367=EDGE_CURVE('',#383,#381,#437,.T.);
#368=EDGE_CURVE('',#379,#378,#438,.T.);
#369=EDGE_CURVE('',#371,#370,#439,.T.);
#370=VERTEX_POINT('',#440);
#371=VERTEX_POINT('',#441);
#372=CIRCLE('',#442,26.0);
#373=VERTEX_POINT('',#443);
#374=LINE('',#444,#445);
#375=VERTEX_POINT('',#446);
#376=CIRCLE('',#447,30.0);
#377=LINE('',#448,#449);
#378=VERTEX_POINT('',#450);
#379=VERTEX_POINT('',#451);
#380=CIRCLE('',#452,7.99999999999999);
#381=VERTEX_POINT('',#453);
#382=LINE('',#454,#455);
#383=VERTEX_POINT('',#456);
#384=CIRCLE('',#457,7.99999999999999);
#385=LINE('',#458,#459);
#386=VERTEX_POINT('',#460);
#387=VERTEX_POINT('',#461);
#388=CIRCLE('',#462,26.0);
#389=VERTEX_POINT('',#463);
#390=LINE('',#464,#465);
#391=VERTEX_POINT('',#466);
#392=CIRCLE('',#467,30.0);
#393=LINE('',#468,#469);
#394=VERTEX_POINT('',#470);
#395=VERTEX_POINT('',#471);
#396=CIRCLE('',#472,7.99999999999999);
#397=VERTEX_POINT('',#473);
#398=LINE('',#474,#475);
#399=VERTEX_POINT('',#476);
#400=CIRCLE('',#477,7.99999999999999);
#401=LINE('',#478,#479);
#402=CIRCLE('',#480,7.99999999999999);
#403=CIRCLE('',#481,7.99999999999999);
#404=CIRCLE('',#482,26.0);
#405=CIRCLE('',#483,30.0);
#406=VERTEX_POINT('',#484);
#407=VERTEX_POINT('',#485);
#408=LINE('',#486,#487);
#409=VERTEX_POINT('',#488);
#410=LINE('',#489,#490);
#411=VERTEX_POINT('',#491);
#412=LINE('',#492,#493);
#413=VERTEX_POINT('',#494);
#414=LINE('',#495,#496);
#415=VERTEX_POINT('',#497);
#416=LINE('',#498,#499);
#417=LINE('',#500,#501);
#418=VERTEX_POINT('',#502);
#419=VERTEX_POINT('',#503);
#420=LINE('',#504,#505);
#421=VERTEX_POINT('',#506);
#422=LINE('',#507,#508);
#423=VERTEX_POINT('',#509);
#424=LINE('',#510,#511);
#425=VERTEX_POINT('',#512);
#426=LINE('',#513,#514);
#427=VERTEX_POINT('',#515);
#428=LINE('',#516,#517);
#429=LINE('',#518,#519);
#430=CIRCLE('',#520,30.0);
#431=LINE('',#521,#522);
#432=LINE('',#523,#524);
#433=LINE('',#525,#526);
#434=LINE('',#527,#528);
#435=LINE('',#529,#530);
#436=LINE('',#531,#532);
#437=CIRCLE('',#533,7.99999999999999);
#438=CIRCLE('',#534,7.99999999999999);
#439=CIRCLE('',#535,26.0);
#440=CARTESIAN_POINT('',(9.10729824887824E-15,-40.0,26.0));
#441=CARTESIAN_POINT('',(1.25363092864908E-14,-40.0,-26.0));
#442=AXIS2_PLACEMENT_3D('',#536,#537,#538);
#443=CARTESIAN_POINT('',(1.27812386463203E-14,-8.5,-30.0));
#444=CARTESIAN_POINT('',(1.22913799266614E-14,-40.0,-26.0));
#445=VECTOR('',#539,1000.0);
#446=CARTESIAN_POINT('',(9.10729824887824E-15,-8.5,30.0));
#447=AXIS2_PLACEMENT_3D('',#540,#541,#542);
#448=CARTESIAN_POINT('',(9.10729824887824E-15,-40.0,26.0));
#449=VECTOR('',#543,1000.0);
#450=CARTESIAN_POINT('',(1.00870156881961E-14,-40.0,-7.99999999999999));
#451=CARTESIAN_POINT('',(9.10729824887824E-15,-40.0,7.99999999999999));
#452=AXIS2_PLACEMENT_3D('',#544,#545,#546);
#453=CARTESIAN_POINT('',(1.00870156881961E-14,-20.0,-7.99999999999999));
#454=CARTESIAN_POINT('',(1.00870156881961E-14,20.0,-7.99999999999999));
#455=VECTOR('',#547,1000.0);
#456=CARTESIAN_POINT('',(9.10729824887824E-15,-20.0,7.99999999999999));
#457=AXIS2_PLACEMENT_3D('',#548,#549,#550);
#458=CARTESIAN_POINT('',(9.10729824887824E-15,20.0,7.99999999999999));
#459=VECTOR('',#551,1000.0);
#460=CARTESIAN_POINT('',(1.25363092864908E-14,40.0,26.0));
#461=CARTESIAN_POINT('',(9.10729824887824E-15,40.0,-26.0));
#462=AXIS2_PLACEMENT_3D('',#552,#553,#554);
#463=CARTESIAN_POINT('',(1.27812386463203E-14,8.5,30.0));
#464=CARTESIAN_POINT('',(1.27812386463203E-14,8.5,30.0));
#465=VECTOR('',#555,1000.0);
#466=CARTESIAN_POINT('',(9.10729824887824E-15,8.5,-30.0));
#467=AXIS2_PLACEMENT_3D('',#556,#557,#558);
#468=CARTESIAN_POINT('',(9.10729824887824E-15,8.5,-30.0));
#469=VECTOR('',#559,1000.0);
#470=CARTESIAN_POINT('',(1.00870156881961E-14,20.0,-7.99999999999999));
#471=CARTESIAN_POINT('',(9.10729824887824E-15,20.0,7.99999999999999));
#472=AXIS2_PLACEMENT_3D('',#560,#561,#562);
#473=CARTESIAN_POINT('',(1.00870156881961E-14,40.0,-7.99999999999999));
#474=CARTESIAN_POINT('',(1.00870156881961E-14,20.0,-7.99999999999999));
#475=VECTOR('',#563,1000.0);
#476=CARTESIAN_POINT('',(9.10729824887824E-15,40.0,7.99999999999999));
#477=AXIS2_PLACEMENT_3D('',#564,#565,#566);
#478=CARTESIAN_POINT('',(9.10729824887824E-15,20.0,7.99999999999999));
#479=VECTOR('',#567,1000.0);
#480=AXIS2_PLACEMENT_3D('',#568,#569,#570);
#481=AXIS2_PLACEMENT_3D('',#571,#572,#573);
#482=AXIS2_PLACEMENT_3D('',#574,#575,#576);
#483=AXIS2_PLACEMENT_3D('',#577,#578,#579);
#484=CARTESIAN_POINT('',(3.69401177873483E-15,8.5,37.5277674973257));
#485=CARTESIAN_POINT('',(32.5,8.5,18.7638837486628));
#486=CARTESIAN_POINT('',(3.69401177873483E-15,8.5,37.5277674973257));
#487=VECTOR('',#580,1000.0);
#488=CARTESIAN_POINT('',(32.5,8.5,-18.7638837486628));
#489=CARTESIAN_POINT('',(32.5,8.5,18.7638837486628));
#490=VECTOR('',#581,1000.0);
#491=CARTESIAN_POINT('',(-1.28862386368112E-14,8.5,-37.5277674973257));
#492=CARTESIAN_POINT('',(32.5,8.5,-18.7638837486628));
#493=VECTOR('',#582,1000.0);
#494=CARTESIAN_POINT('',(-32.5,8.5,-18.7638837486628));
#495=CARTESIAN_POINT('',(-1.28862386368112E-14,8.5,-37.5277674973257));
#496=VECTOR('',#583,1000.0);
#497=CARTESIAN_POINT('',(-32.5,8.5,18.7638837486628));
#498=CARTESIAN_POINT('',(-32.5,8.5,-18.7638837486628));
#499=VECTOR('',#584,1000.0);
#500=CARTESIAN_POINT('',(-32.5,8.5,18.7638837486628));
#501=VECTOR('',#585,1000.0);
#502=CARTESIAN_POINT('',(3.69401177873483E-15,-8.5,37.5277674973257));
#503=CARTESIAN_POINT('',(32.5,-8.5,18.7638837486628));
#504=CARTESIAN_POINT('',(3.69401177873483E-15,-8.5,37.5277674973257));
#505=VECTOR('',#586,1000.0);
#506=CARTESIAN_POINT('',(-32.5,-8.5,18.7638837486628));
#507=CARTESIAN_POINT('',(-32.5,-8.5,18.7638837486628));
#508=VECTOR('',#587,1000.0);
#509=CARTESIAN_POINT('',(-32.5,-8.5,-18.7638837486628));
#510=CARTESIAN_POINT('',(-32.5,-8.5,-18.7638837486628));
#511=VECTOR('',#588,1000.0);
#512=CARTESIAN_POINT('',(-1.28862386368112E-14,-8.5,-37.5277674973257));
#513=CARTESIAN_POINT('',(-1.28862386368112E-14,-8.5,-37.5277674973257));
#514=VECTOR('',#589,1000.0);
#515=CARTESIAN_POINT('',(32.5,-8.5,-18.7638837486628));
#516=CARTESIAN_POINT('',(32.5,-8.5,-18.7638837486628));
#517=VECTOR('',#590,1000.0);
#518=CARTESIAN_POINT('',(32.5,-8.5,18.7638837486628));
#519=VECTOR('',#591,1000.0);
#520=AXIS2_PLACEMENT_3D('',#592,#593,#594);
#521=CARTESIAN_POINT('',(32.5,8.5,18.7638837486628));
#522=VECTOR('',#595,1000.0);
#523=CARTESIAN_POINT('',(3.69401177873483E-15,8.5,37.5277674973257));
#524=VECTOR('',#596,1000.0);
#525=CARTESIAN_POINT('',(32.5,8.5,-18.7638837486628));
#526=VECTOR('',#597,1000.0);
#527=CARTESIAN_POINT('',(-1.28862386368112E-14,8.5,-37.5277674973257));
#528=VECTOR('',#598,1000.0);
#529=CARTESIAN_POINT('',(-32.5,8.5,-18.7638837486628));
#530=VECTOR('',#599,1000.0);
#531=CARTESIAN_POINT('',(-32.5,8.5,18.7638837486628));
#532=VECTOR('',#600,1000.0);
#533=AXIS2_PLACEMENT_3D('',#601,#602,#603);
#534=AXIS2_PLACEMENT_3D('',#604,#605,#606);
#535=AXIS2_PLACEMENT_3D('',#607,#608,#609);
#536=CARTESIAN_POINT('',(9.10729824887824E-15,-40.0,0.0));
#537=DIRECTION('',(-0.0,1.0,0.0));
#538=DIRECTION('',(0.0,0.0,1.0));
#539=DIRECTION('',(1.54271864271219E-17,0.9920337292203,-0.125972537043848));
#540=CARTESIAN_POINT('',(9.10729824887824E-15,-8.5,0.0));
#541=DIRECTION('',(-0.0,1.0,0.0));
#542=DIRECTION('',(0.0,0.0,1.0));
#543=DIRECTION('',(0.0,0.9920337292203,0.125972537043848));
#544=CARTESIAN_POINT('',(9.10729824887824E-15,-40.0,0.0));
#545=DIRECTION('',(-0.0,1.0,0.0));
#546=DIRECTION('',(0.0,0.0,1.0));
#547=DIRECTION('',(-0.0,1.0,-0.0));
#548=CARTESIAN_POINT('',(9.10729824887824E-15,-20.0,0.0));
#549=DIRECTION('',(-0.0,1.0,0.0));
#550=DIRECTION('',(0.0,0.0,1.0));
#551=DIRECTION('',(-0.0,1.0,-0.0));
#552=CARTESIAN_POINT('',(9.10729824887824E-15,40.0,0.0));
#553=DIRECTION('',(-0.0,1.0,0.0));
#554=DIRECTION('',(0.0,0.0,1.0));
#555=DIRECTION('',(1.54271864271219E-17,-0.9920337292203,0.125972537043848));
#556=CARTESIAN_POINT('',(9.10729824887824E-15,8.5,0.0));
#557=DIRECTION('',(0.0,1.0,0.0));
#558=DIRECTION('',(0.0,0.0,1.0));
#559=DIRECTION('',(0.0,-0.9920337292203,-0.125972537043848));
#560=CARTESIAN_POINT('',(9.10729824887824E-15,20.0,0.0));
#561=DIRECTION('',(-0.0,1.0,0.0));
#562=DIRECTION('',(0.0,0.0,1.0));
#563=DIRECTION('',(-0.0,1.0,-0.0));
#564=CARTESIAN_POINT('',(9.10729824887824E-15,40.0,0.0));
#565=DIRECTION('',(-0.0,1.0,0.0));
#566=DIRECTION('',(0.0,0.0,1.0));
#567=DIRECTION('',(-0.0,1.0,-0.0));
#568=CARTESIAN_POINT('',(9.10729824887824E-15,20.0,0.0));
#569=DIRECTION('',(-0.0,1.0,0.0));
#570=DIRECTION('',(0.0,0.0,1.0));
#571=CARTESIAN_POINT('',(9.10729824887824E-15,40.0,0.0));
#572=DIRECTION('',(-0.0,1.0,0.0));
#573=DIRECTION('',(0.0,0.0,1.0));
#574=CARTESIAN_POINT('',(9.10729824887824E-15,40.0,0.0));
#575=DIRECTION('',(-0.0,1.0,0.0));
#576=DIRECTION('',(0.0,0.0,1.0));
#577=CARTESIAN_POINT('',(9.10729824887824E-15,8.5,0.0));
#578=DIRECTION('',(0.0,1.0,0.0));
#579=DIRECTION('',(0.0,0.0,1.0));
#580=DIRECTION('',(0.866025403784439,0.0,-0.5));
#581=DIRECTION('',(-3.69800516612224E-16,0.0,-1.0));
#582=DIRECTION('',(-0.866025403784439,0.0,-0.5));
#583=DIRECTION('',(-0.866025403784439,0.0,0.5));
#584=DIRECTION('',(1.84900258306112E-16,0.0,1.0));
#585=DIRECTION('',(0.866025403784439,0.0,0.5));
#586=DIRECTION('',(0.866025403784439,0.0,-0.5));
#587=DIRECTION('',(0.866025403784439,0.0,0.5));
#588=DIRECTION('',(1.84900258306112E-16,0.0,1.0));
#589=DIRECTION('',(-0.866025403784439,0.0,0.5));
#590=DIRECTION('',(-0.866025403784439,0.0,-0.5));
#591=DIRECTION('',(-3.69800516612224E-16,0.0,-1.0));
#592=CARTESIAN_POINT('',(9.10729824887824E-15,-8.5,0.0));
#593=DIRECTION('',(-0.0,1.0,0.0));
#594=DIRECTION('',(0.0,0.0,1.0));
#595=DIRECTION('',(-0.0,-1.0,-0.0));
#596=DIRECTION('',(-0.0,-1.0,-0.0));
#597=DIRECTION('',(-0.0,-1.0,-0.0));
#598=DIRECTION('',(-0.0,-1.0,-0.0));
#599=DIRECTION('',(-0.0,-1.0,-0.0));
#600=DIRECTION('',(-0.0,-1.0,-0.0));
#601=CARTESIAN_POINT('',(9.10729824887824E-15,-20.0,0.0));
#602=DIRECTION('',(-0.0,1.0,0.0));
#603=DIRECTION('',(0.0,0.0,1.0));
#604=CARTESIAN_POINT('',(9.10729824887824E-15,-40.0,0.0));
#605=DIRECTION('',(-0.0,1.0,0.0));
#606=DIRECTION('',(0.0,0.0,1.0));
#607=CARTESIAN_POINT('',(9.10729824887824E-15,-40.0,0.0));
#608=DIRECTION('',(-0.0,1.0,0.0));
#609=DIRECTION('',(0.0,0.0,1.0));
ENDSEC;
END-ISO-10303-21;
