ISO-10303-21;
HEADER;
FILE_DESCRIPTION(('STEP AP203'),'1');
FILE_NAME('dh70m6.stp','2024-07-15T12:50:03',('TraceParts'),('TraceParts S.A.'),'Spatial InterOp 3D',' ',' ');
FILE_SCHEMA(('CONFIG_CONTROL_DESIGN'));
ENDSEC;
DATA;
#1=DESIGN_CONTEXT('',#27,'design');
#2=APPLICATION_PROTOCOL_DEFINITION('INTERNATIONAL STANDARD','config_control_design',1994,#27);
#3=PRODUCT_CATEGORY_RELATIONSHIP('NONE','NONE',#28,#29);
#4=DATE_AND_TIME(#30,#31);
#5=DATE_TIME_ROLE('creation_date');
#6=DATE_TIME_ROLE('classification_date');
#7=PERSON_AND_ORGANIZATION_ROLE('creator');
#8=PERSON_AND_ORGANIZATION_ROLE('design_supplier');
#9=PERSON_AND_ORGANIZATION_ROLE('classification_officer');
#10=PERSON_AND_ORGANIZATION_ROLE('design_owner');
#11=APPROVAL_PERSON_ORGANIZATION(#32,#33,#34);
#12=APPROVAL_DATE_TIME(#4,#33);
#13=CC_DESIGN_APPROVAL(#33,(#35,#36,#37));
#14=CC_DESIGN_DATE_AND_TIME_ASSIGNMENT(#4,#5,(#37));
#15=CC_DESIGN_DATE_AND_TIME_ASSIGNMENT(#4,#6,(#35));
#16=CC_DESIGN_PERSON_AND_ORGANIZATION_ASSIGNMENT(#32,#10,(#38));
#17=CC_DESIGN_PERSON_AND_ORGANIZATION_ASSIGNMENT(#32,#7,(#37));
#18=CC_DESIGN_PERSON_AND_ORGANIZATION_ASSIGNMENT(#32,#7,(#36));
#19=CC_DESIGN_PERSON_AND_ORGANIZATION_ASSIGNMENT(#32,#8,(#36));
#20=CC_DESIGN_SECURITY_CLASSIFICATION(#35,(#36));
#21=CC_DESIGN_PERSON_AND_ORGANIZATION_ASSIGNMENT(#32,#9,(#35));
#22=SHAPE_DEFINITION_REPRESENTATION(#39,#40);
#23= (GEOMETRIC_REPRESENTATION_CONTEXT(3)GLOBAL_UNCERTAINTY_ASSIGNED_CONTEXT((#43))GLOBAL_UNIT_ASSIGNED_CONTEXT((#45,#46,#47))REPRESENTATION_CONTEXT('NONE','WORKSPACE'));
#27=APPLICATION_CONTEXT('CONFIGURATION CONTROLLED 3D DESIGNS OF MECHANICAL PARTS AND ASSEMBLIES');
#28=PRODUCT_CATEGORY('part','NONE');
#29=PRODUCT_RELATED_PRODUCT_CATEGORY('detail',' ',(#38));
#30=CALENDAR_DATE(2024,15,6);
#31=LOCAL_TIME(14,50,3.0,#49);
#32=PERSON_AND_ORGANIZATION(#50,#51);
#33=APPROVAL(#52,'SOLID MODEL');
#34=APPROVAL_ROLE('APPROVED');
#35=SECURITY_CLASSIFICATION('','',#53);
#36=PRODUCT_DEFINITION_FORMATION_WITH_SPECIFIED_SOURCE(' ','NONE',#38,.NOT_KNOWN.);
#37=PRODUCT_DEFINITION('','NONE',#36,#1);
#38=PRODUCT('1','','PART--DESC',(#54));
#39=PRODUCT_DEFINITION_SHAPE('NONE','NONE',#37);
#40=ADVANCED_BREP_SHAPE_REPRESENTATION('1',(#55,#56),#23);
#43=UNCERTAINTY_MEASURE_WITH_UNIT(LENGTH_MEASURE(1.0E-06),#45,'','');
#45= (CONVERSION_BASED_UNIT('MILLIMETRE',#59)LENGTH_UNIT()NAMED_UNIT(#62));
#46= (NAMED_UNIT(#64)PLANE_ANGLE_UNIT()SI_UNIT($,.RADIAN.));
#47= (NAMED_UNIT(#64)SOLID_ANGLE_UNIT()SI_UNIT($,.STERADIAN.));
#49=COORDINATED_UNIVERSAL_TIME_OFFSET(1,0,.AHEAD.);
#50=PERSON('','UNSPECIFIED',$,$,$,$);
#51=ORGANIZATION('UNSPECIFIED','UNSPECIFIED','UNSPECIFIED');
#52=APPROVAL_STATUS('approved');
#53=SECURITY_CLASSIFICATION_LEVEL('unclassified');
#54=MECHANICAL_CONTEXT('',#27,'mechanical');
#55=MANIFOLD_SOLID_BREP('1',#70);
#56=AXIS2_PLACEMENT_3D('',#71,#72,#73);
#59=LENGTH_MEASURE_WITH_UNIT(LENGTH_MEASURE(1.0),#74);
#62=DIMENSIONAL_EXPONENTS(1.0,0.0,0.0,0.0,0.0,0.0,0.0);
#64=DIMENSIONAL_EXPONENTS(0.0,0.0,0.0,0.0,0.0,0.0,0.0);
#70=CLOSED_SHELL('',(#75,#76,#77,#78,#79,#80,#81,#82,#83,#84,#85,#86,#87,#88,#89,#90));
#71=CARTESIAN_POINT('',(0.0,0.0,0.0));
#72=DIRECTION('',(0.0,0.0,1.0));
#73=DIRECTION('',(1.0,0.0,0.0));
#74= (NAMED_UNIT(#62)LENGTH_UNIT()SI_UNIT(.MILLI.,.METRE.));
#75=ADVANCED_FACE('',(#92),#93,.T.);
#76=ADVANCED_FACE('',(#94),#95,.F.);
#77=ADVANCED_FACE('',(#96),#97,.T.);
#78=ADVANCED_FACE('',(#98),#99,.F.);
#79=ADVANCED_FACE('',(#100,#101),#102,.F.);
#80=ADVANCED_FACE('',(#103),#104,.F.);
#81=ADVANCED_FACE('',(#105,#106),#107,.T.);
#82=ADVANCED_FACE('',(#108),#109,.F.);
#83=ADVANCED_FACE('',(#110),#111,.T.);
#84=ADVANCED_FACE('',(#112),#113,.F.);
#85=ADVANCED_FACE('',(#114),#115,.F.);
#86=ADVANCED_FACE('',(#116),#117,.F.);
#87=ADVANCED_FACE('',(#118),#119,.F.);
#88=ADVANCED_FACE('',(#120),#121,.T.);
#89=ADVANCED_FACE('',(#122),#123,.T.);
#90=ADVANCED_FACE('',(#124),#125,.F.);
#92=FACE_OUTER_BOUND('',#126,.T.);
#93=CYLINDRICAL_SURFACE('',#127,3.0);
#94=FACE_OUTER_BOUND('',#128,.T.);
#95=CYLINDRICAL_SURFACE('',#129,3.0);
#96=FACE_OUTER_BOUND('',#130,.T.);
#97=CONICAL_SURFACE('',#131,2.9999999999859,0.785398163397448);
#98=FACE_OUTER_BOUND('',#132,.T.);
#99=PLANE('',#133);
#100=FACE_OUTER_BOUND('',#134,.T.);
#101=FACE_BOUND('',#135,.T.);
#102=PLANE('',#136);
#103=FACE_OUTER_BOUND('',#137,.T.);
#104=PLANE('',#138);
#105=FACE_OUTER_BOUND('',#139,.T.);
#106=FACE_BOUND('',#140,.T.);
#107=PLANE('',#141);
#108=FACE_OUTER_BOUND('',#142,.T.);
#109=PLANE('',#143);
#110=FACE_OUTER_BOUND('',#144,.T.);
#111=CYLINDRICAL_SURFACE('',#145,3.0);
#112=FACE_OUTER_BOUND('',#146,.T.);
#113=PLANE('',#147);
#114=FACE_OUTER_BOUND('',#148,.T.);
#115=PLANE('',#149);
#116=FACE_OUTER_BOUND('',#150,.T.);
#117=PLANE('',#151);
#118=FACE_OUTER_BOUND('',#152,.T.);
#119=CYLINDRICAL_SURFACE('',#153,3.0);
#120=FACE_OUTER_BOUND('',#154,.T.);
#121=CONICAL_SURFACE('',#155,2.9999999999859,0.785398163397448);
#122=FACE_OUTER_BOUND('',#156,.T.);
#123=PLANE('',#157);
#124=FACE_OUTER_BOUND('',#158,.T.);
#125=PLANE('',#159);
#126=EDGE_LOOP('',(#160,#161,#162,#163,#164));
#127=AXIS2_PLACEMENT_3D('',#165,#166,#167);
#128=EDGE_LOOP('',(#168,#169,#170,#171));
#129=AXIS2_PLACEMENT_3D('',#172,#173,#174);
#130=EDGE_LOOP('',(#175,#176,#177,#178,#179));
#131=AXIS2_PLACEMENT_3D('',#180,#181,#182);
#132=EDGE_LOOP('',(#183,#184,#185,#186));
#133=AXIS2_PLACEMENT_3D('',#187,#188,#189);
#134=EDGE_LOOP('',(#190,#191,#192,#193,#194,#195));
#135=EDGE_LOOP('',(#196,#197));
#136=AXIS2_PLACEMENT_3D('',#198,#199,#200);
#137=EDGE_LOOP('',(#201,#202,#203,#204));
#138=AXIS2_PLACEMENT_3D('',#205,#206,#207);
#139=EDGE_LOOP('',(#208,#209,#210,#211,#212,#213));
#140=EDGE_LOOP('',(#214,#215));
#141=AXIS2_PLACEMENT_3D('',#216,#217,#218);
#142=EDGE_LOOP('',(#219,#220,#221,#222));
#143=AXIS2_PLACEMENT_3D('',#223,#224,#225);
#144=EDGE_LOOP('',(#226,#227,#228,#229,#230));
#145=AXIS2_PLACEMENT_3D('',#231,#232,#233);
#146=EDGE_LOOP('',(#234,#235,#236,#237));
#147=AXIS2_PLACEMENT_3D('',#238,#239,#240);
#148=EDGE_LOOP('',(#241,#242,#243,#244));
#149=AXIS2_PLACEMENT_3D('',#245,#246,#247);
#150=EDGE_LOOP('',(#248,#249,#250,#251));
#151=AXIS2_PLACEMENT_3D('',#252,#253,#254);
#152=EDGE_LOOP('',(#255,#256,#257,#258));
#153=AXIS2_PLACEMENT_3D('',#259,#260,#261);
#154=EDGE_LOOP('',(#262,#263,#264,#265,#266));
#155=AXIS2_PLACEMENT_3D('',#267,#268,#269);
#156=EDGE_LOOP('',(#270,#271));
#157=AXIS2_PLACEMENT_3D('',#272,#273,#274);
#158=EDGE_LOOP('',(#275,#276));
#159=AXIS2_PLACEMENT_3D('',#277,#278,#279);
#160=ORIENTED_EDGE('',*,*,#280,.T.);
#161=ORIENTED_EDGE('',*,*,#281,.T.);
#162=ORIENTED_EDGE('',*,*,#282,.T.);
#163=ORIENTED_EDGE('',*,*,#283,.T.);
#164=ORIENTED_EDGE('',*,*,#284,.F.);
#165=CARTESIAN_POINT('',(62.0,0.0,0.0));
#166=DIRECTION('',(1.0,0.0,-0.0));
#167=DIRECTION('',(0.0,0.0,1.0));
#168=ORIENTED_EDGE('',*,*,#285,.F.);
#169=ORIENTED_EDGE('',*,*,#286,.T.);
#170=ORIENTED_EDGE('',*,*,#287,.F.);
#171=ORIENTED_EDGE('',*,*,#288,.F.);
#172=CARTESIAN_POINT('',(70.0,0.0,0.0));
#173=DIRECTION('',(1.0,0.0,-0.0));
#174=DIRECTION('',(0.0,0.0,1.0));
#175=ORIENTED_EDGE('',*,*,#289,.T.);
#176=ORIENTED_EDGE('',*,*,#290,.T.);
#177=ORIENTED_EDGE('',*,*,#291,.F.);
#178=ORIENTED_EDGE('',*,*,#283,.F.);
#179=ORIENTED_EDGE('',*,*,#292,.F.);
#180=CARTESIAN_POINT('',(-6.59999999993488,0.0,0.0));
#181=DIRECTION('',(1.0,-0.0,-0.0));
#182=DIRECTION('',(0.0,1.0,0.0));
#183=ORIENTED_EDGE('',*,*,#293,.F.);
#184=ORIENTED_EDGE('',*,*,#294,.F.);
#185=ORIENTED_EDGE('',*,*,#295,.F.);
#186=ORIENTED_EDGE('',*,*,#296,.F.);
#187=CARTESIAN_POINT('',(70.0,-3.75277674973258,-6.49999999999999));
#188=DIRECTION('',(0.0,-2.31125322882639E-16,1.0));
#189=DIRECTION('',(0.0,-1.0,-2.31125322882639E-16));
#190=ORIENTED_EDGE('',*,*,#297,.F.);
#191=ORIENTED_EDGE('',*,*,#298,.F.);
#192=ORIENTED_EDGE('',*,*,#296,.T.);
#193=ORIENTED_EDGE('',*,*,#299,.F.);
#194=ORIENTED_EDGE('',*,*,#300,.F.);
#195=ORIENTED_EDGE('',*,*,#301,.F.);
#196=ORIENTED_EDGE('',*,*,#280,.F.);
#197=ORIENTED_EDGE('',*,*,#302,.F.);
#198=CARTESIAN_POINT('',(0.0,-7.50555349946514,1.36681355868874E-15));
#199=DIRECTION('',(1.0,-0.0,0.0));
#200=DIRECTION('',(0.0,1.0,-0.0));
#201=ORIENTED_EDGE('',*,*,#303,.F.);
#202=ORIENTED_EDGE('',*,*,#304,.F.);
#203=ORIENTED_EDGE('',*,*,#293,.T.);
#204=ORIENTED_EDGE('',*,*,#298,.T.);
#205=CARTESIAN_POINT('',(70.0,3.75277674973258,-6.49999999999999));
#206=DIRECTION('',(0.0,-0.866025403784439,0.5));
#207=DIRECTION('',(-1.0,0.0,0.0));
#208=ORIENTED_EDGE('',*,*,#305,.T.);
#209=ORIENTED_EDGE('',*,*,#306,.T.);
#210=ORIENTED_EDGE('',*,*,#307,.T.);
#211=ORIENTED_EDGE('',*,*,#308,.T.);
#212=ORIENTED_EDGE('',*,*,#294,.T.);
#213=ORIENTED_EDGE('',*,*,#304,.T.);
#214=ORIENTED_EDGE('',*,*,#309,.T.);
#215=ORIENTED_EDGE('',*,*,#285,.T.);
#216=CARTESIAN_POINT('',(70.0,-7.50555349946514,1.36681355868874E-15));
#217=DIRECTION('',(1.0,-0.0,0.0));
#218=DIRECTION('',(0.0,1.0,-0.0));
#219=ORIENTED_EDGE('',*,*,#295,.T.);
#220=ORIENTED_EDGE('',*,*,#308,.F.);
#221=ORIENTED_EDGE('',*,*,#310,.F.);
#222=ORIENTED_EDGE('',*,*,#299,.T.);
#223=CARTESIAN_POINT('',(70.0,-7.50555349946514,6.65627790333631E-16));
#224=DIRECTION('',(-0.0,0.866025403784438,0.5));
#225=DIRECTION('',(1.0,0.0,0.0));
#226=ORIENTED_EDGE('',*,*,#281,.F.);
#227=ORIENTED_EDGE('',*,*,#302,.T.);
#228=ORIENTED_EDGE('',*,*,#284,.T.);
#229=ORIENTED_EDGE('',*,*,#291,.T.);
#230=ORIENTED_EDGE('',*,*,#311,.T.);
#231=CARTESIAN_POINT('',(62.0,0.0,0.0));
#232=DIRECTION('',(1.0,0.0,-0.0));
#233=DIRECTION('',(0.0,0.0,1.0));
#234=ORIENTED_EDGE('',*,*,#310,.T.);
#235=ORIENTED_EDGE('',*,*,#307,.F.);
#236=ORIENTED_EDGE('',*,*,#312,.F.);
#237=ORIENTED_EDGE('',*,*,#300,.T.);
#238=CARTESIAN_POINT('',(70.0,-3.75277674973257,6.5));
#239=DIRECTION('',(0.0,0.866025403784438,-0.500000000000001));
#240=DIRECTION('',(-1.0,0.0,0.0));
#241=ORIENTED_EDGE('',*,*,#312,.T.);
#242=ORIENTED_EDGE('',*,*,#306,.F.);
#243=ORIENTED_EDGE('',*,*,#313,.F.);
#244=ORIENTED_EDGE('',*,*,#301,.T.);
#245=CARTESIAN_POINT('',(70.0,3.75277674973256,6.5));
#246=DIRECTION('',(0.0,0.0,-1.0));
#247=DIRECTION('',(0.0,-1.0,0.0));
#248=ORIENTED_EDGE('',*,*,#303,.T.);
#249=ORIENTED_EDGE('',*,*,#297,.T.);
#250=ORIENTED_EDGE('',*,*,#313,.T.);
#251=ORIENTED_EDGE('',*,*,#305,.F.);
#252=CARTESIAN_POINT('',(70.0,7.50555349946514,-6.98743753788592E-15));
#253=DIRECTION('',(0.0,-0.866025403784439,-0.5));
#254=DIRECTION('',(0.0,0.5,-0.866025403784439));
#255=ORIENTED_EDGE('',*,*,#286,.F.);
#256=ORIENTED_EDGE('',*,*,#309,.F.);
#257=ORIENTED_EDGE('',*,*,#288,.T.);
#258=ORIENTED_EDGE('',*,*,#314,.F.);
#259=CARTESIAN_POINT('',(70.0,0.0,0.0));
#260=DIRECTION('',(1.0,0.0,-0.0));
#261=DIRECTION('',(0.0,0.0,1.0));
#262=ORIENTED_EDGE('',*,*,#290,.F.);
#263=ORIENTED_EDGE('',*,*,#315,.T.);
#264=ORIENTED_EDGE('',*,*,#292,.T.);
#265=ORIENTED_EDGE('',*,*,#282,.F.);
#266=ORIENTED_EDGE('',*,*,#311,.F.);
#267=CARTESIAN_POINT('',(-6.59999999993488,0.0,0.0));
#268=DIRECTION('',(1.0,-0.0,-0.0));
#269=DIRECTION('',(0.0,1.0,0.0));
#270=ORIENTED_EDGE('',*,*,#287,.T.);
#271=ORIENTED_EDGE('',*,*,#314,.T.);
#272=CARTESIAN_POINT('',(62.0,0.0,0.0));
#273=DIRECTION('',(1.0,-0.0,0.0));
#274=DIRECTION('',(0.0,1.0,-0.0));
#275=ORIENTED_EDGE('',*,*,#289,.F.);
#276=ORIENTED_EDGE('',*,*,#315,.F.);
#277=CARTESIAN_POINT('',(-7.0,0.0,0.0));
#278=DIRECTION('',(1.0,-0.0,0.0));
#279=DIRECTION('',(0.0,1.0,-0.0));
#280=EDGE_CURVE('',#316,#317,#318,.T.);
#281=EDGE_CURVE('',#317,#319,#320,.T.);
#282=EDGE_CURVE('',#319,#321,#322,.T.);
#283=EDGE_CURVE('',#321,#323,#324,.T.);
#284=EDGE_CURVE('',#316,#323,#325,.T.);
#285=EDGE_CURVE('',#326,#327,#328,.T.);
#286=EDGE_CURVE('',#326,#329,#330,.T.);
#287=EDGE_CURVE('',#331,#329,#332,.T.);
#288=EDGE_CURVE('',#327,#331,#333,.T.);
#289=EDGE_CURVE('',#334,#335,#336,.T.);
#290=EDGE_CURVE('',#335,#337,#338,.T.);
#291=EDGE_CURVE('',#323,#337,#339,.T.);
#292=EDGE_CURVE('',#334,#321,#340,.T.);
#293=EDGE_CURVE('',#341,#342,#343,.T.);
#294=EDGE_CURVE('',#344,#341,#345,.T.);
#295=EDGE_CURVE('',#346,#344,#347,.T.);
#296=EDGE_CURVE('',#342,#346,#348,.T.);
#297=EDGE_CURVE('',#349,#350,#351,.T.);
#298=EDGE_CURVE('',#342,#349,#352,.T.);
#299=EDGE_CURVE('',#353,#346,#354,.T.);
#300=EDGE_CURVE('',#355,#353,#356,.T.);
#301=EDGE_CURVE('',#350,#355,#357,.T.);
#302=EDGE_CURVE('',#317,#316,#358,.T.);
#303=EDGE_CURVE('',#359,#349,#360,.T.);
#304=EDGE_CURVE('',#341,#359,#361,.T.);
#305=EDGE_CURVE('',#359,#362,#363,.T.);
#306=EDGE_CURVE('',#362,#364,#365,.T.);
#307=EDGE_CURVE('',#364,#366,#367,.T.);
#308=EDGE_CURVE('',#366,#344,#368,.T.);
#309=EDGE_CURVE('',#327,#326,#369,.T.);
#310=EDGE_CURVE('',#353,#366,#370,.T.);
#311=EDGE_CURVE('',#337,#319,#371,.T.);
#312=EDGE_CURVE('',#355,#364,#372,.T.);
#313=EDGE_CURVE('',#350,#362,#373,.T.);
#314=EDGE_CURVE('',#329,#331,#374,.T.);
#315=EDGE_CURVE('',#335,#334,#375,.T.);
#316=VERTEX_POINT('',#376);
#317=VERTEX_POINT('',#377);
#318=CIRCLE('',#378,3.0);
#319=VERTEX_POINT('',#379);
#320=LINE('',#380,#381);
#321=VERTEX_POINT('',#382);
#322=CIRCLE('',#383,3.0);
#323=VERTEX_POINT('',#384);
#324=CIRCLE('',#385,3.0);
#325=LINE('',#386,#387);
#326=VERTEX_POINT('',#388);
#327=VERTEX_POINT('',#389);
#328=CIRCLE('',#390,3.0);
#329=VERTEX_POINT('',#391);
#330=LINE('',#392,#393);
#331=VERTEX_POINT('',#394);
#332=CIRCLE('',#395,3.0);
#333=LINE('',#396,#397);
#334=VERTEX_POINT('',#398);
#335=VERTEX_POINT('',#399);
#336=CIRCLE('',#400,2.59999999997262);
#337=VERTEX_POINT('',#401);
#338=LINE('',#402,#403);
#339=CIRCLE('',#404,3.0);
#340=LINE('',#405,#406);
#341=VERTEX_POINT('',#407);
#342=VERTEX_POINT('',#408);
#343=LINE('',#409,#410);
#344=VERTEX_POINT('',#411);
#345=LINE('',#412,#413);
#346=VERTEX_POINT('',#414);
#347=LINE('',#415,#416);
#348=LINE('',#417,#418);
#349=VERTEX_POINT('',#419);
#350=VERTEX_POINT('',#420);
#351=LINE('',#421,#422);
#352=LINE('',#423,#424);
#353=VERTEX_POINT('',#425);
#354=LINE('',#426,#427);
#355=VERTEX_POINT('',#428);
#356=LINE('',#429,#430);
#357=LINE('',#431,#432);
#358=CIRCLE('',#433,3.0);
#359=VERTEX_POINT('',#434);
#360=LINE('',#435,#436);
#361=LINE('',#437,#438);
#362=VERTEX_POINT('',#439);
#363=LINE('',#440,#441);
#364=VERTEX_POINT('',#442);
#365=LINE('',#443,#444);
#366=VERTEX_POINT('',#445);
#367=LINE('',#446,#447);
#368=LINE('',#448,#449);
#369=CIRCLE('',#450,3.0);
#370=LINE('',#451,#452);
#371=CIRCLE('',#453,3.0);
#372=LINE('',#454,#455);
#373=LINE('',#456,#457);
#374=CIRCLE('',#458,3.0);
#375=CIRCLE('',#459,2.59999999997262);
#376=CARTESIAN_POINT('',(0.0,0.0,3.0));
#377=CARTESIAN_POINT('',(0.0,3.67394039744206E-16,-3.0));
#378=AXIS2_PLACEMENT_3D('',#460,#461,#462);
#379=CARTESIAN_POINT('',(-6.59999999999999,3.67394039744206E-16,-3.0));
#380=CARTESIAN_POINT('',(62.0,3.67394039744206E-16,-3.0));
#381=VECTOR('',#463,1000.0);
#382=CARTESIAN_POINT('',(-6.59999999999999,2.9999999999208,0.0));
#383=AXIS2_PLACEMENT_3D('',#464,#465,#466);
#384=CARTESIAN_POINT('',(-6.59999999999999,0.0,3.0));
#385=AXIS2_PLACEMENT_3D('',#467,#468,#469);
#386=CARTESIAN_POINT('',(62.0,0.0,3.0));
#387=VECTOR('',#470,1000.0);
#388=CARTESIAN_POINT('',(70.0,3.67394039744206E-16,-3.0));
#389=CARTESIAN_POINT('',(70.0,0.0,3.0));
#390=AXIS2_PLACEMENT_3D('',#471,#472,#473);
#391=CARTESIAN_POINT('',(62.0,3.67394039744206E-16,-3.0));
#392=CARTESIAN_POINT('',(70.0,3.67394039744206E-16,-3.0));
#393=VECTOR('',#474,1000.0);
#394=CARTESIAN_POINT('',(62.0,0.0,3.0));
#395=AXIS2_PLACEMENT_3D('',#475,#476,#477);
#396=CARTESIAN_POINT('',(70.0,0.0,3.0));
#397=VECTOR('',#478,1000.0);
#398=CARTESIAN_POINT('',(-6.99999999994816,2.59999999997262,0.0));
#399=CARTESIAN_POINT('',(-6.99999999994816,-2.59999999997262,3.42901103754733E-16));
#400=AXIS2_PLACEMENT_3D('',#479,#480,#481);
#401=CARTESIAN_POINT('',(-6.59999999999999,-2.9999999999208,3.67394039734506E-16));
#402=CARTESIAN_POINT('',(-6.59999999993488,-2.9999999999859,3.6739403974248E-16));
#403=VECTOR('',#482,1000.0);
#404=AXIS2_PLACEMENT_3D('',#483,#484,#485);
#405=CARTESIAN_POINT('',(-6.59999999993488,2.9999999999859,0.0));
#406=VECTOR('',#486,1000.0);
#407=CARTESIAN_POINT('',(70.0,3.75277674973258,-6.49999999999999));
#408=CARTESIAN_POINT('',(0.0,3.75277674973258,-6.49999999999999));
#409=CARTESIAN_POINT('',(70.0,3.75277674973258,-6.49999999999999));
#410=VECTOR('',#487,1000.0);
#411=CARTESIAN_POINT('',(70.0,-3.75277674973258,-6.49999999999999));
#412=CARTESIAN_POINT('',(70.0,-3.75277674973258,-6.49999999999999));
#413=VECTOR('',#488,1000.0);
#414=CARTESIAN_POINT('',(0.0,-3.75277674973258,-6.49999999999999));
#415=CARTESIAN_POINT('',(70.0,-3.75277674973258,-6.49999999999999));
#416=VECTOR('',#489,1000.0);
#417=CARTESIAN_POINT('',(0.0,-3.75277674973258,-6.49999999999999));
#418=VECTOR('',#490,1000.0);
#419=CARTESIAN_POINT('',(-3.46944695195361E-15,7.50555349946514,-7.95572034211307E-15));
#420=CARTESIAN_POINT('',(0.0,3.75277674973256,6.5));
#421=CARTESIAN_POINT('',(0.0,7.50555349946514,-6.98743753788592E-15));
#422=VECTOR('',#491,1000.0);
#423=CARTESIAN_POINT('',(0.0,3.75277674973258,-6.49999999999999));
#424=VECTOR('',#492,1000.0);
#425=CARTESIAN_POINT('',(0.0,-7.50555349946514,1.53353158826916E-16));
#426=CARTESIAN_POINT('',(0.0,-7.50555349946514,6.65627790333631E-16));
#427=VECTOR('',#493,1000.0);
#428=CARTESIAN_POINT('',(0.0,-3.75277674973257,6.5));
#429=CARTESIAN_POINT('',(0.0,-3.75277674973257,6.5));
#430=VECTOR('',#494,1000.0);
#431=CARTESIAN_POINT('',(0.0,-7.50555349946514,6.5));
#432=VECTOR('',#495,1000.0);
#433=AXIS2_PLACEMENT_3D('',#496,#497,#498);
#434=CARTESIAN_POINT('',(70.0,7.50555349946514,-6.3005085089106E-15));
#435=CARTESIAN_POINT('',(70.0,7.50555349946514,-6.98743753788592E-15));
#436=VECTOR('',#499,1000.0);
#437=CARTESIAN_POINT('',(70.0,3.75277674973258,-6.49999999999999));
#438=VECTOR('',#500,1000.0);
#439=CARTESIAN_POINT('',(70.0,3.75277674973256,6.5));
#440=CARTESIAN_POINT('',(70.0,3.75277674973256,6.5));
#441=VECTOR('',#501,1000.0);
#442=CARTESIAN_POINT('',(70.0,-3.75277674973257,6.5));
#443=CARTESIAN_POINT('',(70.0,-7.50555349946514,6.5));
#444=VECTOR('',#502,1000.0);
#445=CARTESIAN_POINT('',(70.0,-7.50555349946515,-3.4763049279768E-16));
#446=CARTESIAN_POINT('',(70.0,-3.75277674973257,6.5));
#447=VECTOR('',#503,1000.0);
#448=CARTESIAN_POINT('',(70.0,-7.50555349946514,6.65627790333631E-16));
#449=VECTOR('',#504,1000.0);
#450=AXIS2_PLACEMENT_3D('',#505,#506,#507);
#451=CARTESIAN_POINT('',(70.0,-7.50555349946514,6.65627790333631E-16));
#452=VECTOR('',#508,1000.0);
#453=AXIS2_PLACEMENT_3D('',#509,#510,#511);
#454=CARTESIAN_POINT('',(70.0,-3.75277674973257,6.5));
#455=VECTOR('',#512,1000.0);
#456=CARTESIAN_POINT('',(70.0,3.75277674973256,6.5));
#457=VECTOR('',#513,1000.0);
#458=AXIS2_PLACEMENT_3D('',#514,#515,#516);
#459=AXIS2_PLACEMENT_3D('',#517,#518,#519);
#460=CARTESIAN_POINT('',(0.0,0.0,0.0));
#461=DIRECTION('',(-1.0,0.0,0.0));
#462=DIRECTION('',(0.0,0.0,1.0));
#463=DIRECTION('',(-1.0,-0.0,-0.0));
#464=CARTESIAN_POINT('',(-6.59999999999999,0.0,0.0));
#465=DIRECTION('',(1.0,0.0,-0.0));
#466=DIRECTION('',(0.0,0.0,1.0));
#467=CARTESIAN_POINT('',(-6.59999999999999,0.0,0.0));
#468=DIRECTION('',(1.0,0.0,-0.0));
#469=DIRECTION('',(0.0,0.0,1.0));
#470=DIRECTION('',(-1.0,-0.0,-0.0));
#471=CARTESIAN_POINT('',(70.0,0.0,0.0));
#472=DIRECTION('',(-1.0,0.0,0.0));
#473=DIRECTION('',(0.0,0.0,1.0));
#474=DIRECTION('',(-1.0,-0.0,-0.0));
#475=CARTESIAN_POINT('',(62.0,0.0,0.0));
#476=DIRECTION('',(1.0,0.0,-0.0));
#477=DIRECTION('',(0.0,0.0,1.0));
#478=DIRECTION('',(-1.0,-0.0,-0.0));
#479=CARTESIAN_POINT('',(-6.99999999994816,5.78241158680849E-17,0.0));
#480=DIRECTION('',(1.0,-0.0,0.0));
#481=DIRECTION('',(0.0,1.0,0.0));
#482=DIRECTION('',(0.707106781186547,-0.707106781186548,8.65956056235493E-17));
#483=CARTESIAN_POINT('',(-6.59999999999999,0.0,0.0));
#484=DIRECTION('',(1.0,0.0,-0.0));
#485=DIRECTION('',(0.0,0.0,1.0));
#486=DIRECTION('',(0.707106781186548,0.707106781186547,0.0));
#487=DIRECTION('',(-1.0,-0.0,-0.0));
#488=DIRECTION('',(-0.0,1.0,2.31125322882639E-16));
#489=DIRECTION('',(1.0,0.0,0.0));
#490=DIRECTION('',(0.0,-1.0,-2.31125322882639E-16));
#491=DIRECTION('',(-0.0,-0.5,0.866025403784439));
#492=DIRECTION('',(0.0,0.5,0.866025403784439));
#493=DIRECTION('',(0.0,0.5,-0.866025403784438));
#494=DIRECTION('',(0.0,-0.5,-0.866025403784438));
#495=DIRECTION('',(-0.0,-1.0,-0.0));
#496=CARTESIAN_POINT('',(0.0,0.0,0.0));
#497=DIRECTION('',(-1.0,0.0,0.0));
#498=DIRECTION('',(0.0,0.0,1.0));
#499=DIRECTION('',(-1.0,-0.0,-0.0));
#500=DIRECTION('',(-0.0,0.5,0.866025403784439));
#501=DIRECTION('',(-0.0,-0.5,0.866025403784439));
#502=DIRECTION('',(-0.0,-1.0,-0.0));
#503=DIRECTION('',(0.0,-0.5,-0.866025403784438));
#504=DIRECTION('',(0.0,0.5,-0.866025403784438));
#505=CARTESIAN_POINT('',(70.0,0.0,0.0));
#506=DIRECTION('',(-1.0,0.0,0.0));
#507=DIRECTION('',(0.0,0.0,1.0));
#508=DIRECTION('',(1.0,0.0,0.0));
#509=CARTESIAN_POINT('',(-6.59999999999999,0.0,0.0));
#510=DIRECTION('',(1.0,0.0,-0.0));
#511=DIRECTION('',(0.0,0.0,1.0));
#512=DIRECTION('',(1.0,-0.0,0.0));
#513=DIRECTION('',(1.0,0.0,0.0));
#514=CARTESIAN_POINT('',(62.0,0.0,0.0));
#515=DIRECTION('',(1.0,0.0,-0.0));
#516=DIRECTION('',(0.0,0.0,1.0));
#517=CARTESIAN_POINT('',(-6.99999999994816,5.78241158680849E-17,0.0));
#518=DIRECTION('',(1.0,-0.0,0.0));
#519=DIRECTION('',(0.0,1.0,0.0));
ENDSEC;
END-ISO-10303-21;
