ISO-10303-21;
HEADER;
FILE_DESCRIPTION(('STEP AP203'),'1');
FILE_NAME('dh85m5.stp','2024-09-25T15:03:24',('TraceParts'),('TraceParts S.A.'),'Spatial InterOp 3D',' ',' ');
FILE_SCHEMA(('CONFIG_CONTROL_DESIGN'));
ENDSEC;
DATA;
#1=DESIGN_CONTEXT('',#27,'design');
#2=APPLICATION_PROTOCOL_DEFINITION('INTERNATIONAL STANDARD','config_control_design',1994,#27);
#3=PRODUCT_CATEGORY_RELATIONSHIP('NONE','NONE',#28,#29);
#4=DATE_AND_TIME(#30,#31);
#5=DATE_TIME_ROLE('creation_date');
#6=DATE_TIME_ROLE('classification_date');
#7=PERSON_AND_ORGANIZATION_ROLE('creator');
#8=PERSON_AND_ORGANIZATION_ROLE('design_supplier');
#9=PERSON_AND_ORGANIZATION_ROLE('classification_officer');
#10=PERSON_AND_ORGANIZATION_ROLE('design_owner');
#11=APPROVAL_PERSON_ORGANIZATION(#32,#33,#34);
#12=APPROVAL_DATE_TIME(#4,#33);
#13=CC_DESIGN_APPROVAL(#33,(#35,#36,#37));
#14=CC_DESIGN_DATE_AND_TIME_ASSIGNMENT(#4,#5,(#37));
#15=CC_DESIGN_DATE_AND_TIME_ASSIGNMENT(#4,#6,(#35));
#16=CC_DESIGN_PERSON_AND_ORGANIZATION_ASSIGNMENT(#32,#10,(#38));
#17=CC_DESIGN_PERSON_AND_ORGANIZATION_ASSIGNMENT(#32,#7,(#37));
#18=CC_DESIGN_PERSON_AND_ORGANIZATION_ASSIGNMENT(#32,#7,(#36));
#19=CC_DESIGN_PERSON_AND_ORGANIZATION_ASSIGNMENT(#32,#8,(#36));
#20=CC_DESIGN_SECURITY_CLASSIFICATION(#35,(#36));
#21=CC_DESIGN_PERSON_AND_ORGANIZATION_ASSIGNMENT(#32,#9,(#35));
#22=SHAPE_DEFINITION_REPRESENTATION(#39,#40);
#23= (GEOMETRIC_REPRESENTATION_CONTEXT(3)GLOBAL_UNCERTAINTY_ASSIGNED_CONTEXT((#43))GLOBAL_UNIT_ASSIGNED_CONTEXT((#45,#46,#47))REPRESENTATION_CONTEXT('NONE','WORKSPACE'));
#27=APPLICATION_CONTEXT('CONFIGURATION CONTROLLED 3D DESIGNS OF MECHANICAL PARTS AND ASSEMBLIES');
#28=PRODUCT_CATEGORY('part','NONE');
#29=PRODUCT_RELATED_PRODUCT_CATEGORY('detail',' ',(#38));
#30=CALENDAR_DATE(2024,25,8);
#31=LOCAL_TIME(17,3,24.0,#49);
#32=PERSON_AND_ORGANIZATION(#50,#51);
#33=APPROVAL(#52,'SOLID MODEL');
#34=APPROVAL_ROLE('APPROVED');
#35=SECURITY_CLASSIFICATION('','',#53);
#36=PRODUCT_DEFINITION_FORMATION_WITH_SPECIFIED_SOURCE(' ','NONE',#38,.NOT_KNOWN.);
#37=PRODUCT_DEFINITION('','NONE',#36,#1);
#38=PRODUCT('1','','PART--DESC',(#54));
#39=PRODUCT_DEFINITION_SHAPE('NONE','NONE',#37);
#40=ADVANCED_BREP_SHAPE_REPRESENTATION('1',(#55,#56),#23);
#43=UNCERTAINTY_MEASURE_WITH_UNIT(LENGTH_MEASURE(1.0E-06),#45,'','');
#45= (CONVERSION_BASED_UNIT('MILLIMETRE',#59)LENGTH_UNIT()NAMED_UNIT(#62));
#46= (NAMED_UNIT(#64)PLANE_ANGLE_UNIT()SI_UNIT($,.RADIAN.));
#47= (NAMED_UNIT(#64)SOLID_ANGLE_UNIT()SI_UNIT($,.STERADIAN.));
#49=COORDINATED_UNIVERSAL_TIME_OFFSET(1,0,.AHEAD.);
#50=PERSON('','UNSPECIFIED',$,$,$,$);
#51=ORGANIZATION('UNSPECIFIED','UNSPECIFIED','UNSPECIFIED');
#52=APPROVAL_STATUS('approved');
#53=SECURITY_CLASSIFICATION_LEVEL('unclassified');
#54=MECHANICAL_CONTEXT('',#27,'mechanical');
#55=MANIFOLD_SOLID_BREP('1',#70);
#56=AXIS2_PLACEMENT_3D('',#71,#72,#73);
#59=LENGTH_MEASURE_WITH_UNIT(LENGTH_MEASURE(1.0),#74);
#62=DIMENSIONAL_EXPONENTS(1.0,0.0,0.0,0.0,0.0,0.0,0.0);
#64=DIMENSIONAL_EXPONENTS(0.0,0.0,0.0,0.0,0.0,0.0,0.0);
#70=CLOSED_SHELL('',(#75,#76,#77,#78,#79,#80,#81,#82,#83,#84,#85,#86,#87,#88,#89,#90));
#71=CARTESIAN_POINT('',(0.0,0.0,0.0));
#72=DIRECTION('',(0.0,0.0,1.0));
#73=DIRECTION('',(1.0,0.0,0.0));
#74= (NAMED_UNIT(#62)LENGTH_UNIT()SI_UNIT(.MILLI.,.METRE.));
#75=ADVANCED_FACE('',(#92),#93,.F.);
#76=ADVANCED_FACE('',(#94),#95,.T.);
#77=ADVANCED_FACE('',(#96),#97,.T.);
#78=ADVANCED_FACE('',(#98),#99,.F.);
#79=ADVANCED_FACE('',(#100),#101,.F.);
#80=ADVANCED_FACE('',(#102,#103),#104,.T.);
#81=ADVANCED_FACE('',(#105),#106,.F.);
#82=ADVANCED_FACE('',(#107,#108),#109,.F.);
#83=ADVANCED_FACE('',(#110),#111,.F.);
#84=ADVANCED_FACE('',(#112),#113,.F.);
#85=ADVANCED_FACE('',(#114),#115,.F.);
#86=ADVANCED_FACE('',(#116),#117,.F.);
#87=ADVANCED_FACE('',(#118),#119,.T.);
#88=ADVANCED_FACE('',(#120),#121,.T.);
#89=ADVANCED_FACE('',(#122),#123,.T.);
#90=ADVANCED_FACE('',(#124),#125,.F.);
#92=FACE_OUTER_BOUND('',#126,.T.);
#93=CYLINDRICAL_SURFACE('',#127,2.5);
#94=FACE_OUTER_BOUND('',#128,.T.);
#95=CYLINDRICAL_SURFACE('',#129,2.5);
#96=FACE_OUTER_BOUND('',#130,.T.);
#97=CONICAL_SURFACE('',#131,2.49999999988404,0.785398163397448);
#98=FACE_OUTER_BOUND('',#132,.T.);
#99=PLANE('',#133);
#100=FACE_OUTER_BOUND('',#134,.T.);
#101=PLANE('',#135);
#102=FACE_OUTER_BOUND('',#136,.T.);
#103=FACE_BOUND('',#137,.T.);
#104=PLANE('',#138);
#105=FACE_OUTER_BOUND('',#139,.T.);
#106=PLANE('',#140);
#107=FACE_OUTER_BOUND('',#141,.T.);
#108=FACE_BOUND('',#142,.T.);
#109=PLANE('',#143);
#110=FACE_OUTER_BOUND('',#144,.T.);
#111=PLANE('',#145);
#112=FACE_OUTER_BOUND('',#146,.T.);
#113=PLANE('',#147);
#114=FACE_OUTER_BOUND('',#148,.T.);
#115=PLANE('',#149);
#116=FACE_OUTER_BOUND('',#150,.T.);
#117=CYLINDRICAL_SURFACE('',#151,2.5);
#118=FACE_OUTER_BOUND('',#152,.T.);
#119=CYLINDRICAL_SURFACE('',#153,2.5);
#120=FACE_OUTER_BOUND('',#154,.T.);
#121=PLANE('',#155);
#122=FACE_OUTER_BOUND('',#156,.T.);
#123=CONICAL_SURFACE('',#157,2.49999999988404,0.785398163397448);
#124=FACE_OUTER_BOUND('',#158,.T.);
#125=PLANE('',#159);
#126=EDGE_LOOP('',(#160,#161,#162,#163));
#127=AXIS2_PLACEMENT_3D('',#164,#165,#166);
#128=EDGE_LOOP('',(#167,#168,#169,#170));
#129=AXIS2_PLACEMENT_3D('',#171,#172,#173);
#130=EDGE_LOOP('',(#174,#175,#176,#177));
#131=AXIS2_PLACEMENT_3D('',#178,#179,#180);
#132=EDGE_LOOP('',(#181,#182,#183,#184));
#133=AXIS2_PLACEMENT_3D('',#185,#186,#187);
#134=EDGE_LOOP('',(#188,#189,#190,#191));
#135=AXIS2_PLACEMENT_3D('',#192,#193,#194);
#136=EDGE_LOOP('',(#195,#196,#197,#198,#199,#200));
#137=EDGE_LOOP('',(#201,#202));
#138=AXIS2_PLACEMENT_3D('',#203,#204,#205);
#139=EDGE_LOOP('',(#206,#207,#208,#209));
#140=AXIS2_PLACEMENT_3D('',#210,#211,#212);
#141=EDGE_LOOP('',(#213,#214,#215,#216,#217,#218));
#142=EDGE_LOOP('',(#219,#220));
#143=AXIS2_PLACEMENT_3D('',#221,#222,#223);
#144=EDGE_LOOP('',(#224,#225,#226,#227));
#145=AXIS2_PLACEMENT_3D('',#228,#229,#230);
#146=EDGE_LOOP('',(#231,#232,#233,#234));
#147=AXIS2_PLACEMENT_3D('',#235,#236,#237);
#148=EDGE_LOOP('',(#238,#239,#240,#241));
#149=AXIS2_PLACEMENT_3D('',#242,#243,#244);
#150=EDGE_LOOP('',(#245,#246,#247,#248));
#151=AXIS2_PLACEMENT_3D('',#249,#250,#251);
#152=EDGE_LOOP('',(#252,#253,#254,#255));
#153=AXIS2_PLACEMENT_3D('',#256,#257,#258);
#154=EDGE_LOOP('',(#259,#260));
#155=AXIS2_PLACEMENT_3D('',#261,#262,#263);
#156=EDGE_LOOP('',(#264,#265,#266,#267));
#157=AXIS2_PLACEMENT_3D('',#268,#269,#270);
#158=EDGE_LOOP('',(#271,#272));
#159=AXIS2_PLACEMENT_3D('',#273,#274,#275);
#160=ORIENTED_EDGE('',*,*,#276,.F.);
#161=ORIENTED_EDGE('',*,*,#277,.T.);
#162=ORIENTED_EDGE('',*,*,#278,.F.);
#163=ORIENTED_EDGE('',*,*,#279,.F.);
#164=CARTESIAN_POINT('',(85.0,0.0,0.0));
#165=DIRECTION('',(1.0,0.0,-0.0));
#166=DIRECTION('',(0.0,0.0,1.0));
#167=ORIENTED_EDGE('',*,*,#280,.T.);
#168=ORIENTED_EDGE('',*,*,#281,.T.);
#169=ORIENTED_EDGE('',*,*,#282,.T.);
#170=ORIENTED_EDGE('',*,*,#283,.F.);
#171=CARTESIAN_POINT('',(78.0,0.0,0.0));
#172=DIRECTION('',(1.0,0.0,-0.0));
#173=DIRECTION('',(0.0,0.0,1.0));
#174=ORIENTED_EDGE('',*,*,#284,.T.);
#175=ORIENTED_EDGE('',*,*,#285,.T.);
#176=ORIENTED_EDGE('',*,*,#282,.F.);
#177=ORIENTED_EDGE('',*,*,#286,.F.);
#178=CARTESIAN_POINT('',(-6.70000000008031,0.0,0.0));
#179=DIRECTION('',(1.0,-0.0,0.0));
#180=DIRECTION('',(0.0,0.0,-1.0));
#181=ORIENTED_EDGE('',*,*,#287,.F.);
#182=ORIENTED_EDGE('',*,*,#288,.F.);
#183=ORIENTED_EDGE('',*,*,#289,.F.);
#184=ORIENTED_EDGE('',*,*,#290,.F.);
#185=CARTESIAN_POINT('',(85.0,-3.75277674973258,-6.49999999999999));
#186=DIRECTION('',(0.0,-4.62250645765278E-16,1.0));
#187=DIRECTION('',(0.0,-1.0,-4.62250645765278E-16));
#188=ORIENTED_EDGE('',*,*,#291,.F.);
#189=ORIENTED_EDGE('',*,*,#290,.T.);
#190=ORIENTED_EDGE('',*,*,#292,.F.);
#191=ORIENTED_EDGE('',*,*,#293,.F.);
#192=CARTESIAN_POINT('',(85.0,3.75277674973258,-6.49999999999998));
#193=DIRECTION('',(0.0,-0.866025403784438,0.500000000000001));
#194=DIRECTION('',(-1.0,0.0,0.0));
#195=ORIENTED_EDGE('',*,*,#287,.T.);
#196=ORIENTED_EDGE('',*,*,#291,.T.);
#197=ORIENTED_EDGE('',*,*,#294,.T.);
#198=ORIENTED_EDGE('',*,*,#295,.T.);
#199=ORIENTED_EDGE('',*,*,#296,.T.);
#200=ORIENTED_EDGE('',*,*,#297,.T.);
#201=ORIENTED_EDGE('',*,*,#298,.T.);
#202=ORIENTED_EDGE('',*,*,#276,.T.);
#203=CARTESIAN_POINT('',(85.0,-7.50555349946514,4.06403587527472E-15));
#204=DIRECTION('',(1.0,-0.0,0.0));
#205=DIRECTION('',(0.0,1.0,-0.0));
#206=ORIENTED_EDGE('',*,*,#297,.F.);
#207=ORIENTED_EDGE('',*,*,#299,.F.);
#208=ORIENTED_EDGE('',*,*,#300,.F.);
#209=ORIENTED_EDGE('',*,*,#288,.T.);
#210=CARTESIAN_POINT('',(85.0,-7.50555349946514,5.44525866172892E-15));
#211=DIRECTION('',(-0.0,0.866025403784439,0.5));
#212=DIRECTION('',(1.0,0.0,0.0));
#213=ORIENTED_EDGE('',*,*,#301,.F.);
#214=ORIENTED_EDGE('',*,*,#302,.F.);
#215=ORIENTED_EDGE('',*,*,#303,.F.);
#216=ORIENTED_EDGE('',*,*,#292,.T.);
#217=ORIENTED_EDGE('',*,*,#289,.T.);
#218=ORIENTED_EDGE('',*,*,#300,.T.);
#219=ORIENTED_EDGE('',*,*,#280,.F.);
#220=ORIENTED_EDGE('',*,*,#304,.F.);
#221=CARTESIAN_POINT('',(0.0,-7.50555349946514,4.06403587527472E-15));
#222=DIRECTION('',(1.0,-0.0,0.0));
#223=DIRECTION('',(0.0,1.0,-0.0));
#224=ORIENTED_EDGE('',*,*,#294,.F.);
#225=ORIENTED_EDGE('',*,*,#293,.T.);
#226=ORIENTED_EDGE('',*,*,#303,.T.);
#227=ORIENTED_EDGE('',*,*,#305,.F.);
#228=CARTESIAN_POINT('',(85.0,7.50555349946514,-8.46045493727576E-15));
#229=DIRECTION('',(0.0,-0.866025403784439,-0.499999999999999));
#230=DIRECTION('',(0.0,0.499999999999999,-0.866025403784439));
#231=ORIENTED_EDGE('',*,*,#299,.T.);
#232=ORIENTED_EDGE('',*,*,#296,.F.);
#233=ORIENTED_EDGE('',*,*,#306,.F.);
#234=ORIENTED_EDGE('',*,*,#301,.T.);
#235=CARTESIAN_POINT('',(85.0,-3.75277674973257,6.50000000000001));
#236=DIRECTION('',(0.0,0.866025403784439,-0.5));
#237=DIRECTION('',(-1.0,0.0,0.0));
#238=ORIENTED_EDGE('',*,*,#295,.F.);
#239=ORIENTED_EDGE('',*,*,#305,.T.);
#240=ORIENTED_EDGE('',*,*,#302,.T.);
#241=ORIENTED_EDGE('',*,*,#306,.T.);
#242=CARTESIAN_POINT('',(85.0,3.75277674973257,6.50000000000001));
#243=DIRECTION('',(0.0,0.0,-1.0));
#244=DIRECTION('',(0.0,-1.0,0.0));
#245=ORIENTED_EDGE('',*,*,#277,.F.);
#246=ORIENTED_EDGE('',*,*,#298,.F.);
#247=ORIENTED_EDGE('',*,*,#279,.T.);
#248=ORIENTED_EDGE('',*,*,#307,.F.);
#249=CARTESIAN_POINT('',(85.0,0.0,0.0));
#250=DIRECTION('',(1.0,0.0,-0.0));
#251=DIRECTION('',(0.0,0.0,1.0));
#252=ORIENTED_EDGE('',*,*,#281,.F.);
#253=ORIENTED_EDGE('',*,*,#304,.T.);
#254=ORIENTED_EDGE('',*,*,#283,.T.);
#255=ORIENTED_EDGE('',*,*,#308,.T.);
#256=CARTESIAN_POINT('',(78.0,0.0,0.0));
#257=DIRECTION('',(1.0,0.0,-0.0));
#258=DIRECTION('',(0.0,0.0,1.0));
#259=ORIENTED_EDGE('',*,*,#278,.T.);
#260=ORIENTED_EDGE('',*,*,#307,.T.);
#261=CARTESIAN_POINT('',(78.0,0.0,0.0));
#262=DIRECTION('',(1.0,-0.0,0.0));
#263=DIRECTION('',(0.0,1.0,-0.0));
#264=ORIENTED_EDGE('',*,*,#285,.F.);
#265=ORIENTED_EDGE('',*,*,#309,.T.);
#266=ORIENTED_EDGE('',*,*,#286,.T.);
#267=ORIENTED_EDGE('',*,*,#308,.F.);
#268=CARTESIAN_POINT('',(-6.70000000008031,0.0,0.0));
#269=DIRECTION('',(1.0,-0.0,0.0));
#270=DIRECTION('',(0.0,0.0,-1.0));
#271=ORIENTED_EDGE('',*,*,#284,.F.);
#272=ORIENTED_EDGE('',*,*,#309,.F.);
#273=CARTESIAN_POINT('',(-7.0,0.0,0.0));
#274=DIRECTION('',(1.0,-0.0,0.0));
#275=DIRECTION('',(0.0,1.0,-0.0));
#276=EDGE_CURVE('',#310,#311,#312,.T.);
#277=EDGE_CURVE('',#310,#313,#314,.T.);
#278=EDGE_CURVE('',#315,#313,#316,.T.);
#279=EDGE_CURVE('',#311,#315,#317,.T.);
#280=EDGE_CURVE('',#318,#319,#320,.T.);
#281=EDGE_CURVE('',#319,#321,#322,.T.);
#282=EDGE_CURVE('',#321,#323,#324,.T.);
#283=EDGE_CURVE('',#318,#323,#325,.T.);
#284=EDGE_CURVE('',#326,#327,#328,.T.);
#285=EDGE_CURVE('',#327,#323,#329,.T.);
#286=EDGE_CURVE('',#326,#321,#330,.T.);
#287=EDGE_CURVE('',#331,#332,#333,.T.);
#288=EDGE_CURVE('',#334,#331,#335,.T.);
#289=EDGE_CURVE('',#336,#334,#337,.T.);
#290=EDGE_CURVE('',#332,#336,#338,.T.);
#291=EDGE_CURVE('',#332,#339,#340,.T.);
#292=EDGE_CURVE('',#341,#336,#342,.T.);
#293=EDGE_CURVE('',#339,#341,#343,.T.);
#294=EDGE_CURVE('',#339,#344,#345,.T.);
#295=EDGE_CURVE('',#344,#346,#347,.T.);
#296=EDGE_CURVE('',#346,#348,#349,.T.);
#297=EDGE_CURVE('',#348,#331,#350,.T.);
#298=EDGE_CURVE('',#311,#310,#351,.T.);
#299=EDGE_CURVE('',#352,#348,#353,.T.);
#300=EDGE_CURVE('',#334,#352,#354,.T.);
#301=EDGE_CURVE('',#355,#352,#356,.T.);
#302=EDGE_CURVE('',#357,#355,#358,.T.);
#303=EDGE_CURVE('',#341,#357,#359,.T.);
#304=EDGE_CURVE('',#319,#318,#360,.T.);
#305=EDGE_CURVE('',#344,#357,#361,.T.);
#306=EDGE_CURVE('',#355,#346,#362,.T.);
#307=EDGE_CURVE('',#313,#315,#363,.T.);
#308=EDGE_CURVE('',#323,#321,#364,.T.);
#309=EDGE_CURVE('',#327,#326,#365,.T.);
#310=VERTEX_POINT('',#366);
#311=VERTEX_POINT('',#367);
#312=CIRCLE('',#368,2.5);
#313=VERTEX_POINT('',#369);
#314=LINE('',#370,#371);
#315=VERTEX_POINT('',#372);
#316=CIRCLE('',#373,2.5);
#317=LINE('',#374,#375);
#318=VERTEX_POINT('',#376);
#319=VERTEX_POINT('',#377);
#320=CIRCLE('',#378,2.5);
#321=VERTEX_POINT('',#379);
#322=LINE('',#380,#381);
#323=VERTEX_POINT('',#382);
#324=CIRCLE('',#383,2.5);
#325=LINE('',#384,#385);
#326=VERTEX_POINT('',#386);
#327=VERTEX_POINT('',#387);
#328=CIRCLE('',#388,2.19999999995935);
#329=LINE('',#389,#390);
#330=LINE('',#391,#392);
#331=VERTEX_POINT('',#393);
#332=VERTEX_POINT('',#394);
#333=LINE('',#395,#396);
#334=VERTEX_POINT('',#397);
#335=LINE('',#398,#399);
#336=VERTEX_POINT('',#400);
#337=LINE('',#401,#402);
#338=LINE('',#403,#404);
#339=VERTEX_POINT('',#405);
#340=LINE('',#406,#407);
#341=VERTEX_POINT('',#408);
#342=LINE('',#409,#410);
#343=LINE('',#411,#412);
#344=VERTEX_POINT('',#413);
#345=LINE('',#414,#415);
#346=VERTEX_POINT('',#416);
#347=LINE('',#417,#418);
#348=VERTEX_POINT('',#419);
#349=LINE('',#420,#421);
#350=LINE('',#422,#423);
#351=CIRCLE('',#424,2.5);
#352=VERTEX_POINT('',#425);
#353=LINE('',#426,#427);
#354=LINE('',#428,#429);
#355=VERTEX_POINT('',#430);
#356=LINE('',#431,#432);
#357=VERTEX_POINT('',#433);
#358=LINE('',#434,#435);
#359=LINE('',#436,#437);
#360=CIRCLE('',#438,2.5);
#361=LINE('',#439,#440);
#362=LINE('',#441,#442);
#363=CIRCLE('',#443,2.5);
#364=CIRCLE('',#444,2.5);
#365=CIRCLE('',#445,2.19999999995935);
#366=CARTESIAN_POINT('',(85.0,3.06161699786838E-16,-2.5));
#367=CARTESIAN_POINT('',(85.0,0.0,2.5));
#368=AXIS2_PLACEMENT_3D('',#446,#447,#448);
#369=CARTESIAN_POINT('',(78.0,3.06161699786838E-16,-2.5));
#370=CARTESIAN_POINT('',(85.0,3.06161699786838E-16,-2.5));
#371=VECTOR('',#449,1000.0);
#372=CARTESIAN_POINT('',(78.0,0.0,2.5));
#373=AXIS2_PLACEMENT_3D('',#450,#451,#452);
#374=CARTESIAN_POINT('',(85.0,0.0,2.5));
#375=VECTOR('',#453,1000.0);
#376=CARTESIAN_POINT('',(0.0,0.0,2.5));
#377=CARTESIAN_POINT('',(0.0,3.06161699786838E-16,-2.5));
#378=AXIS2_PLACEMENT_3D('',#454,#455,#456);
#379=CARTESIAN_POINT('',(-6.69999999999998,0.0,-2.49999999996436));
#380=CARTESIAN_POINT('',(78.0,3.06161699786838E-16,-2.5));
#381=VECTOR('',#457,1000.0);
#382=CARTESIAN_POINT('',(-6.69999999999998,3.06161699782474E-16,2.49999999996436));
#383=AXIS2_PLACEMENT_3D('',#458,#459,#460);
#384=CARTESIAN_POINT('',(78.0,0.0,2.5));
#385=VECTOR('',#461,1000.0);
#386=CARTESIAN_POINT('',(-7.000000000005,0.0,-2.19999999995935));
#387=CARTESIAN_POINT('',(-7.000000000005,2.87791997794957E-16,2.19999999995935));
#388=AXIS2_PLACEMENT_3D('',#462,#463,#464);
#389=CARTESIAN_POINT('',(-6.70000000008031,3.06161699772637E-16,2.49999999988404));
#390=VECTOR('',#465,1000.0);
#391=CARTESIAN_POINT('',(-6.70000000008031,0.0,-2.49999999988404));
#392=VECTOR('',#466,1000.0);
#393=CARTESIAN_POINT('',(85.0,-3.75277674973258,-6.49999999999999));
#394=CARTESIAN_POINT('',(85.0,3.75277674973258,-6.49999999999999));
#395=CARTESIAN_POINT('',(85.0,-3.75277674973258,-6.49999999999999));
#396=VECTOR('',#467,1000.0);
#397=CARTESIAN_POINT('',(0.0,-3.75277674973258,-6.49999999999999));
#398=CARTESIAN_POINT('',(85.0,-3.75277674973258,-6.49999999999999));
#399=VECTOR('',#468,1000.0);
#400=CARTESIAN_POINT('',(0.0,3.75277674973258,-6.49999999999999));
#401=CARTESIAN_POINT('',(0.0,-3.75277674973258,-6.49999999999999));
#402=VECTOR('',#469,1000.0);
#403=CARTESIAN_POINT('',(85.0,3.75277674973258,-6.49999999999998));
#404=VECTOR('',#470,1000.0);
#405=CARTESIAN_POINT('',(85.0,7.50555349946514,-7.93404792825098E-15));
#406=CARTESIAN_POINT('',(85.0,3.75277674973258,-6.49999999999998));
#407=VECTOR('',#471,1000.0);
#408=CARTESIAN_POINT('',(0.0,7.50555349946514,-7.36723000640301E-15));
#409=CARTESIAN_POINT('',(0.0,3.75277674973258,-6.49999999999998));
#410=VECTOR('',#472,1000.0);
#411=CARTESIAN_POINT('',(85.0,7.50555349946514,-6.93889390390723E-15));
#412=VECTOR('',#473,1000.0);
#413=CARTESIAN_POINT('',(85.0,3.75277674973257,6.50000000000001));
#414=CARTESIAN_POINT('',(85.0,7.50555349946514,-7.4751150336043E-15));
#415=VECTOR('',#474,1000.0);
#416=CARTESIAN_POINT('',(85.0,-3.75277674973257,6.50000000000001));
#417=CARTESIAN_POINT('',(85.0,-7.50555349946514,6.50000000000001));
#418=VECTOR('',#475,1000.0);
#419=CARTESIAN_POINT('',(85.0,-7.50555349946514,4.77407779555439E-15));
#420=CARTESIAN_POINT('',(85.0,-3.75277674973257,6.50000000000001));
#421=VECTOR('',#476,1000.0);
#422=CARTESIAN_POINT('',(85.0,-7.50555349946514,5.37510100469127E-15));
#423=VECTOR('',#477,1000.0);
#424=AXIS2_PLACEMENT_3D('',#478,#479,#480);
#425=CARTESIAN_POINT('',(0.0,-7.50555349946514,4.86928568736088E-15));
#426=CARTESIAN_POINT('',(85.0,-7.50555349946514,5.35202532131466E-15));
#427=VECTOR('',#481,1000.0);
#428=CARTESIAN_POINT('',(0.0,-7.50555349946514,5.44525866172892E-15));
#429=VECTOR('',#482,1000.0);
#430=CARTESIAN_POINT('',(0.0,-3.75277674973257,6.50000000000001));
#431=CARTESIAN_POINT('',(0.0,-3.75277674973257,6.50000000000001));
#432=VECTOR('',#483,1000.0);
#433=CARTESIAN_POINT('',(0.0,3.75277674973257,6.50000000000001));
#434=CARTESIAN_POINT('',(0.0,-7.50555349946514,6.50000000000001));
#435=VECTOR('',#484,1000.0);
#436=CARTESIAN_POINT('',(0.0,7.50555349946514,-8.05335619226323E-15));
#437=VECTOR('',#485,1000.0);
#438=AXIS2_PLACEMENT_3D('',#486,#487,#488);
#439=CARTESIAN_POINT('',(85.0,3.75277674973257,6.50000000000001));
#440=VECTOR('',#489,1000.0);
#441=CARTESIAN_POINT('',(85.0,-3.75277674973257,6.50000000000001));
#442=VECTOR('',#490,1000.0);
#443=AXIS2_PLACEMENT_3D('',#491,#492,#493);
#444=AXIS2_PLACEMENT_3D('',#494,#495,#496);
#445=AXIS2_PLACEMENT_3D('',#497,#498,#499);
#446=CARTESIAN_POINT('',(85.0,0.0,0.0));
#447=DIRECTION('',(-1.0,0.0,0.0));
#448=DIRECTION('',(0.0,0.0,1.0));
#449=DIRECTION('',(-1.0,-0.0,-0.0));
#450=CARTESIAN_POINT('',(78.0,0.0,0.0));
#451=DIRECTION('',(1.0,0.0,-0.0));
#452=DIRECTION('',(0.0,0.0,1.0));
#453=DIRECTION('',(-1.0,-0.0,-0.0));
#454=CARTESIAN_POINT('',(0.0,0.0,0.0));
#455=DIRECTION('',(-1.0,0.0,0.0));
#456=DIRECTION('',(0.0,0.0,1.0));
#457=DIRECTION('',(-1.0,-0.0,-0.0));
#458=CARTESIAN_POINT('',(-6.69999999999998,0.0,0.0));
#459=DIRECTION('',(1.0,0.0,-0.0));
#460=DIRECTION('',(0.0,0.0,1.0));
#461=DIRECTION('',(-1.0,-0.0,-0.0));
#462=CARTESIAN_POINT('',(-7.000000000005,0.0,0.0));
#463=DIRECTION('',(1.0,0.0,0.0));
#464=DIRECTION('',(0.0,0.0,-1.0));
#465=DIRECTION('',(0.707106781186548,8.65956056235493E-17,0.707106781186547));
#466=DIRECTION('',(0.707106781186548,0.0,-0.707106781186547));
#467=DIRECTION('',(-0.0,1.0,4.62250645765278E-16));
#468=DIRECTION('',(1.0,0.0,0.0));
#469=DIRECTION('',(0.0,-1.0,-4.62250645765278E-16));
#470=DIRECTION('',(-1.0,-0.0,-0.0));
#471=DIRECTION('',(-0.0,0.500000000000001,0.866025403784438));
#472=DIRECTION('',(0.0,-0.500000000000001,-0.866025403784438));
#473=DIRECTION('',(-1.0,-0.0,-0.0));
#474=DIRECTION('',(0.0,-0.5,0.866025403784439));
#475=DIRECTION('',(-0.0,-1.0,-0.0));
#476=DIRECTION('',(0.0,-0.5,-0.866025403784439));
#477=DIRECTION('',(0.0,0.5,-0.866025403784439));
#478=CARTESIAN_POINT('',(85.0,0.0,0.0));
#479=DIRECTION('',(-1.0,0.0,0.0));
#480=DIRECTION('',(0.0,0.0,1.0));
#481=DIRECTION('',(1.0,0.0,0.0));
#482=DIRECTION('',(0.0,-0.5,0.866025403784439));
#483=DIRECTION('',(0.0,-0.5,-0.866025403784439));
#484=DIRECTION('',(-0.0,-1.0,-0.0));
#485=DIRECTION('',(0.0,-0.5,0.866025403784439));
#486=CARTESIAN_POINT('',(0.0,0.0,0.0));
#487=DIRECTION('',(-1.0,0.0,0.0));
#488=DIRECTION('',(0.0,0.0,1.0));
#489=DIRECTION('',(-1.0,-0.0,-0.0));
#490=DIRECTION('',(1.0,-0.0,0.0));
#491=CARTESIAN_POINT('',(78.0,0.0,0.0));
#492=DIRECTION('',(1.0,0.0,-0.0));
#493=DIRECTION('',(0.0,0.0,1.0));
#494=CARTESIAN_POINT('',(-6.69999999999998,0.0,0.0));
#495=DIRECTION('',(1.0,0.0,-0.0));
#496=DIRECTION('',(0.0,0.0,1.0));
#497=CARTESIAN_POINT('',(-7.000000000005,0.0,0.0));
#498=DIRECTION('',(1.0,0.0,0.0));
#499=DIRECTION('',(0.0,0.0,-1.0));
ENDSEC;
END-ISO-10303-21;
