ISO-10303-21;
HEADER;
FILE_DESCRIPTION(('STEP AP203'),'1');
FILE_NAME('abs-kit160x10.stp','2024-09-16T07:18:23',('TraceParts'),('TraceParts S.A.'),'Spatial InterOp 3D',' ',' ');
FILE_SCHEMA(('CONFIG_CONTROL_DESIGN'));
ENDSEC;
DATA;
#1=DESIGN_CONTEXT('',#27,'design');
#2=APPLICATION_PROTOCOL_DEFINITION('INTERNATIONAL STANDARD','config_control_design',1994,#27);
#3=PRODUCT_CATEGORY_RELATIONSHIP('NONE','NONE',#28,#29);
#4=DATE_AND_TIME(#30,#31);
#5=DATE_TIME_ROLE('creation_date');
#6=DATE_TIME_ROLE('classification_date');
#7=PERSON_AND_ORGANIZATION_ROLE('creator');
#8=PERSON_AND_ORGANIZATION_ROLE('design_supplier');
#9=PERSON_AND_ORGANIZATION_ROLE('classification_officer');
#10=PERSON_AND_ORGANIZATION_ROLE('design_owner');
#11=APPROVAL_PERSON_ORGANIZATION(#32,#33,#34);
#12=APPROVAL_DATE_TIME(#4,#33);
#13=CC_DESIGN_APPROVAL(#33,(#35,#36,#37));
#14=CC_DESIGN_DATE_AND_TIME_ASSIGNMENT(#4,#5,(#37));
#15=CC_DESIGN_DATE_AND_TIME_ASSIGNMENT(#4,#6,(#35));
#16=CC_DESIGN_PERSON_AND_ORGANIZATION_ASSIGNMENT(#32,#10,(#38));
#17=CC_DESIGN_PERSON_AND_ORGANIZATION_ASSIGNMENT(#32,#7,(#37));
#18=CC_DESIGN_PERSON_AND_ORGANIZATION_ASSIGNMENT(#32,#7,(#36));
#19=CC_DESIGN_PERSON_AND_ORGANIZATION_ASSIGNMENT(#32,#8,(#36));
#20=CC_DESIGN_SECURITY_CLASSIFICATION(#35,(#36));
#21=CC_DESIGN_PERSON_AND_ORGANIZATION_ASSIGNMENT(#32,#9,(#35));
#22=SHAPE_DEFINITION_REPRESENTATION(#39,#40);
#23= (GEOMETRIC_REPRESENTATION_CONTEXT(3)GLOBAL_UNCERTAINTY_ASSIGNED_CONTEXT((#43))GLOBAL_UNIT_ASSIGNED_CONTEXT((#45,#46,#47))REPRESENTATION_CONTEXT('NONE','WORKSPACE'));
#27=APPLICATION_CONTEXT('CONFIGURATION CONTROLLED 3D DESIGNS OF MECHANICAL PARTS AND ASSEMBLIES');
#28=PRODUCT_CATEGORY('part','NONE');
#29=PRODUCT_RELATED_PRODUCT_CATEGORY('detail',' ',(#38));
#30=CALENDAR_DATE(2024,16,8);
#31=LOCAL_TIME(9,18,23.0,#49);
#32=PERSON_AND_ORGANIZATION(#50,#51);
#33=APPROVAL(#52,'SOLID MODEL');
#34=APPROVAL_ROLE('APPROVED');
#35=SECURITY_CLASSIFICATION('','',#53);
#36=PRODUCT_DEFINITION_FORMATION_WITH_SPECIFIED_SOURCE(' ','NONE',#38,.NOT_KNOWN.);
#37=PRODUCT_DEFINITION('','NONE',#36,#1);
#38=PRODUCT('1','','PART--DESC',(#54));
#39=PRODUCT_DEFINITION_SHAPE('NONE','NONE',#37);
#40=ADVANCED_BREP_SHAPE_REPRESENTATION('1',(#55,#56),#23);
#43=UNCERTAINTY_MEASURE_WITH_UNIT(LENGTH_MEASURE(1.0E-06),#45,'','');
#45= (CONVERSION_BASED_UNIT('MILLIMETRE',#59)LENGTH_UNIT()NAMED_UNIT(#62));
#46= (NAMED_UNIT(#64)PLANE_ANGLE_UNIT()SI_UNIT($,.RADIAN.));
#47= (NAMED_UNIT(#64)SOLID_ANGLE_UNIT()SI_UNIT($,.STERADIAN.));
#49=COORDINATED_UNIVERSAL_TIME_OFFSET(1,0,.AHEAD.);
#50=PERSON('','UNSPECIFIED',$,$,$,$);
#51=ORGANIZATION('UNSPECIFIED','UNSPECIFIED','UNSPECIFIED');
#52=APPROVAL_STATUS('approved');
#53=SECURITY_CLASSIFICATION_LEVEL('unclassified');
#54=MECHANICAL_CONTEXT('',#27,'mechanical');
#55=MANIFOLD_SOLID_BREP('1',#70);
#56=AXIS2_PLACEMENT_3D('',#71,#72,#73);
#59=LENGTH_MEASURE_WITH_UNIT(LENGTH_MEASURE(1.0),#74);
#62=DIMENSIONAL_EXPONENTS(1.0,0.0,0.0,0.0,0.0,0.0,0.0);
#64=DIMENSIONAL_EXPONENTS(0.0,0.0,0.0,0.0,0.0,0.0,0.0);
#70=CLOSED_SHELL('',(#75,#76,#77,#78,#79,#80,#81,#82,#83,#84,#85,#86,#87,#88,#89,#90,#91,#92,#93));
#71=CARTESIAN_POINT('',(0.0,0.0,0.0));
#72=DIRECTION('',(0.0,0.0,1.0));
#73=DIRECTION('',(1.0,0.0,0.0));
#74= (NAMED_UNIT(#62)LENGTH_UNIT()SI_UNIT(.MILLI.,.METRE.));
#75=ADVANCED_FACE('',(#95),#96,.T.);
#76=ADVANCED_FACE('',(#97),#98,.T.);
#77=ADVANCED_FACE('',(#99),#100,.T.);
#78=ADVANCED_FACE('',(#101),#102,.T.);
#79=ADVANCED_FACE('',(#103,#104),#105,.T.);
#80=ADVANCED_FACE('',(#106),#107,.F.);
#81=ADVANCED_FACE('',(#108),#109,.F.);
#82=ADVANCED_FACE('',(#110),#111,.F.);
#83=ADVANCED_FACE('',(#112),#113,.F.);
#84=ADVANCED_FACE('',(#114),#115,.F.);
#85=ADVANCED_FACE('',(#116),#117,.F.);
#86=ADVANCED_FACE('',(#118),#119,.F.);
#87=ADVANCED_FACE('',(#120),#121,.T.);
#88=ADVANCED_FACE('',(#122),#123,.T.);
#89=ADVANCED_FACE('',(#124),#125,.T.);
#90=ADVANCED_FACE('',(#126),#127,.T.);
#91=ADVANCED_FACE('',(#128),#129,.T.);
#92=ADVANCED_FACE('',(#130),#131,.T.);
#93=ADVANCED_FACE('',(#132),#133,.F.);
#95=FACE_OUTER_BOUND('',#134,.T.);
#96=CYLINDRICAL_SURFACE('',#135,4.0);
#97=FACE_OUTER_BOUND('',#136,.T.);
#98=CONICAL_SURFACE('',#137,3.99999999984857,0.785398163397448);
#99=FACE_OUTER_BOUND('',#138,.T.);
#100=CYLINDRICAL_SURFACE('',#139,4.0);
#101=FACE_OUTER_BOUND('',#140,.T.);
#102=CONICAL_SURFACE('',#141,3.99999999984857,0.785398163397448);
#103=FACE_OUTER_BOUND('',#142,.T.);
#104=FACE_BOUND('',#143,.T.);
#105=PLANE('',#144);
#106=FACE_OUTER_BOUND('',#145,.T.);
#107=PLANE('',#146);
#108=FACE_OUTER_BOUND('',#147,.T.);
#109=PLANE('',#148);
#110=FACE_OUTER_BOUND('',#149,.T.);
#111=PLANE('',#150);
#112=FACE_OUTER_BOUND('',#151,.T.);
#113=PLANE('',#152);
#114=FACE_OUTER_BOUND('',#153,.T.);
#115=PLANE('',#154);
#116=FACE_OUTER_BOUND('',#155,.T.);
#117=PLANE('',#156);
#118=FACE_OUTER_BOUND('',#157,.T.);
#119=PLANE('',#158);
#120=FACE_OUTER_BOUND('',#159,.T.);
#121=CONICAL_SURFACE('',#160,7.51158682049891,1.047197551212);
#122=FACE_OUTER_BOUND('',#161,.T.);
#123=CONICAL_SURFACE('',#162,7.51158682049891,1.047197551212);
#124=FACE_OUTER_BOUND('',#163,.T.);
#125=CONICAL_SURFACE('',#164,7.51158682049891,1.047197551212);
#126=FACE_OUTER_BOUND('',#165,.T.);
#127=CONICAL_SURFACE('',#166,7.51158682049891,1.047197551212);
#128=FACE_OUTER_BOUND('',#167,.T.);
#129=CONICAL_SURFACE('',#168,7.51158682049891,1.047197551212);
#130=FACE_OUTER_BOUND('',#169,.T.);
#131=CONICAL_SURFACE('',#170,7.51158682049891,1.047197551212);
#132=FACE_OUTER_BOUND('',#171,.T.);
#133=PLANE('',#172);
#134=EDGE_LOOP('',(#173,#174,#175,#176));
#135=AXIS2_PLACEMENT_3D('',#177,#178,#179);
#136=EDGE_LOOP('',(#180,#181,#182,#183));
#137=AXIS2_PLACEMENT_3D('',#184,#185,#186);
#138=EDGE_LOOP('',(#187,#188,#189,#190));
#139=AXIS2_PLACEMENT_3D('',#191,#192,#193);
#140=EDGE_LOOP('',(#194,#195,#196,#197));
#141=AXIS2_PLACEMENT_3D('',#198,#199,#200);
#142=EDGE_LOOP('',(#201,#202,#203,#204,#205,#206));
#143=EDGE_LOOP('',(#207,#208));
#144=AXIS2_PLACEMENT_3D('',#209,#210,#211);
#145=EDGE_LOOP('',(#212,#213));
#146=AXIS2_PLACEMENT_3D('',#214,#215,#216);
#147=EDGE_LOOP('',(#217,#218,#219,#220,#221));
#148=AXIS2_PLACEMENT_3D('',#222,#223,#224);
#149=EDGE_LOOP('',(#225,#226,#227,#228,#229));
#150=AXIS2_PLACEMENT_3D('',#230,#231,#232);
#151=EDGE_LOOP('',(#233,#234,#235,#236,#237));
#152=AXIS2_PLACEMENT_3D('',#238,#239,#240);
#153=EDGE_LOOP('',(#241,#242,#243,#244,#245));
#154=AXIS2_PLACEMENT_3D('',#246,#247,#248);
#155=EDGE_LOOP('',(#249,#250,#251,#252,#253));
#156=AXIS2_PLACEMENT_3D('',#254,#255,#256);
#157=EDGE_LOOP('',(#257,#258,#259,#260,#261));
#158=AXIS2_PLACEMENT_3D('',#262,#263,#264);
#159=EDGE_LOOP('',(#265,#266,#267));
#160=AXIS2_PLACEMENT_3D('',#268,#269,#270);
#161=EDGE_LOOP('',(#271,#272,#273));
#162=AXIS2_PLACEMENT_3D('',#274,#275,#276);
#163=EDGE_LOOP('',(#277,#278,#279));
#164=AXIS2_PLACEMENT_3D('',#280,#281,#282);
#165=EDGE_LOOP('',(#283,#284,#285));
#166=AXIS2_PLACEMENT_3D('',#286,#287,#288);
#167=EDGE_LOOP('',(#289,#290,#291));
#168=AXIS2_PLACEMENT_3D('',#292,#293,#294);
#169=EDGE_LOOP('',(#295,#296,#297));
#170=AXIS2_PLACEMENT_3D('',#298,#299,#300);
#171=EDGE_LOOP('',(#301,#302,#303,#304,#305,#306));
#172=AXIS2_PLACEMENT_3D('',#307,#308,#309);
#173=ORIENTED_EDGE('',*,*,#310,.T.);
#174=ORIENTED_EDGE('',*,*,#311,.T.);
#175=ORIENTED_EDGE('',*,*,#312,.T.);
#176=ORIENTED_EDGE('',*,*,#313,.F.);
#177=CARTESIAN_POINT('',(0.0,0.0,0.0));
#178=DIRECTION('',(-1.0,0.0,-0.0));
#179=DIRECTION('',(0.0,0.0,-1.0));
#180=ORIENTED_EDGE('',*,*,#314,.T.);
#181=ORIENTED_EDGE('',*,*,#315,.T.);
#182=ORIENTED_EDGE('',*,*,#312,.F.);
#183=ORIENTED_EDGE('',*,*,#316,.F.);
#184=CARTESIAN_POINT('',(164.989500000104,0.0,0.0));
#185=DIRECTION('',(-1.0,0.0,-0.0));
#186=DIRECTION('',(0.0,0.0,1.0));
#187=ORIENTED_EDGE('',*,*,#311,.F.);
#188=ORIENTED_EDGE('',*,*,#317,.T.);
#189=ORIENTED_EDGE('',*,*,#313,.T.);
#190=ORIENTED_EDGE('',*,*,#318,.T.);
#191=CARTESIAN_POINT('',(0.0,0.0,0.0));
#192=DIRECTION('',(-1.0,0.0,-0.0));
#193=DIRECTION('',(0.0,0.0,-1.0));
#194=ORIENTED_EDGE('',*,*,#315,.F.);
#195=ORIENTED_EDGE('',*,*,#319,.T.);
#196=ORIENTED_EDGE('',*,*,#316,.T.);
#197=ORIENTED_EDGE('',*,*,#318,.F.);
#198=CARTESIAN_POINT('',(164.989500000104,0.0,0.0));
#199=DIRECTION('',(-1.0,0.0,-0.0));
#200=DIRECTION('',(0.0,0.0,1.0));
#201=ORIENTED_EDGE('',*,*,#320,.T.);
#202=ORIENTED_EDGE('',*,*,#321,.T.);
#203=ORIENTED_EDGE('',*,*,#322,.T.);
#204=ORIENTED_EDGE('',*,*,#323,.T.);
#205=ORIENTED_EDGE('',*,*,#324,.T.);
#206=ORIENTED_EDGE('',*,*,#325,.T.);
#207=ORIENTED_EDGE('',*,*,#310,.F.);
#208=ORIENTED_EDGE('',*,*,#317,.F.);
#209=CARTESIAN_POINT('',(5.68,7.50555349946514,-1.20040661110533E-15));
#210=DIRECTION('',(1.0,0.0,0.0));
#211=DIRECTION('',(0.0,1.0,0.0));
#212=ORIENTED_EDGE('',*,*,#314,.F.);
#213=ORIENTED_EDGE('',*,*,#319,.F.);
#214=CARTESIAN_POINT('',(165.68,0.0,0.0));
#215=DIRECTION('',(-1.0,0.0,0.0));
#216=DIRECTION('',(0.0,0.0,1.0));
#217=ORIENTED_EDGE('',*,*,#326,.F.);
#218=ORIENTED_EDGE('',*,*,#321,.F.);
#219=ORIENTED_EDGE('',*,*,#327,.F.);
#220=ORIENTED_EDGE('',*,*,#328,.F.);
#221=ORIENTED_EDGE('',*,*,#329,.F.);
#222=CARTESIAN_POINT('',(5.68,3.75277674973256,-6.5));
#223=DIRECTION('',(0.0,-1.1556266144132E-16,1.0));
#224=DIRECTION('',(0.0,-1.0,-1.1556266144132E-16));
#225=ORIENTED_EDGE('',*,*,#327,.T.);
#226=ORIENTED_EDGE('',*,*,#320,.F.);
#227=ORIENTED_EDGE('',*,*,#330,.F.);
#228=ORIENTED_EDGE('',*,*,#331,.F.);
#229=ORIENTED_EDGE('',*,*,#332,.F.);
#230=CARTESIAN_POINT('',(5.68,-3.75277674973258,-6.5));
#231=DIRECTION('',(0.0,0.866025403784438,0.500000000000001));
#232=DIRECTION('',(1.0,0.0,-0.0));
#233=ORIENTED_EDGE('',*,*,#330,.T.);
#234=ORIENTED_EDGE('',*,*,#325,.F.);
#235=ORIENTED_EDGE('',*,*,#333,.F.);
#236=ORIENTED_EDGE('',*,*,#334,.F.);
#237=ORIENTED_EDGE('',*,*,#335,.F.);
#238=CARTESIAN_POINT('',(5.68,-7.50555349946515,0.0));
#239=DIRECTION('',(0.0,0.866025403784438,-0.500000000000002));
#240=DIRECTION('',(-1.0,0.0,0.0));
#241=ORIENTED_EDGE('',*,*,#333,.T.);
#242=ORIENTED_EDGE('',*,*,#324,.F.);
#243=ORIENTED_EDGE('',*,*,#336,.F.);
#244=ORIENTED_EDGE('',*,*,#337,.F.);
#245=ORIENTED_EDGE('',*,*,#338,.F.);
#246=CARTESIAN_POINT('',(5.68,3.75277674973256,6.5));
#247=DIRECTION('',(0.0,-1.1556266144132E-16,-1.0));
#248=DIRECTION('',(0.0,-1.0,1.1556266144132E-16));
#249=ORIENTED_EDGE('',*,*,#336,.T.);
#250=ORIENTED_EDGE('',*,*,#323,.F.);
#251=ORIENTED_EDGE('',*,*,#339,.F.);
#252=ORIENTED_EDGE('',*,*,#340,.F.);
#253=ORIENTED_EDGE('',*,*,#341,.F.);
#254=CARTESIAN_POINT('',(5.68,7.50555349946514,0.0));
#255=DIRECTION('',(0.0,-0.866025403784438,-0.500000000000001));
#256=DIRECTION('',(0.0,0.500000000000001,-0.866025403784438));
#257=ORIENTED_EDGE('',*,*,#339,.T.);
#258=ORIENTED_EDGE('',*,*,#322,.F.);
#259=ORIENTED_EDGE('',*,*,#326,.T.);
#260=ORIENTED_EDGE('',*,*,#342,.F.);
#261=ORIENTED_EDGE('',*,*,#343,.F.);
#262=CARTESIAN_POINT('',(5.68,3.75277674973256,-6.5));
#263=DIRECTION('',(0.0,-0.866025403784438,0.500000000000001));
#264=DIRECTION('',(-1.0,0.0,0.0));
#265=ORIENTED_EDGE('',*,*,#329,.T.);
#266=ORIENTED_EDGE('',*,*,#344,.T.);
#267=ORIENTED_EDGE('',*,*,#342,.T.);
#268=CARTESIAN_POINT('',(0.584039923126056,0.0,0.0));
#269=DIRECTION('',(1.0,-0.0,0.0));
#270=DIRECTION('',(0.0,0.0,-1.0));
#271=ORIENTED_EDGE('',*,*,#345,.T.);
#272=ORIENTED_EDGE('',*,*,#328,.T.);
#273=ORIENTED_EDGE('',*,*,#332,.T.);
#274=CARTESIAN_POINT('',(0.584039923126056,0.0,0.0));
#275=DIRECTION('',(1.0,-0.0,0.0));
#276=DIRECTION('',(0.0,0.0,-1.0));
#277=ORIENTED_EDGE('',*,*,#346,.T.);
#278=ORIENTED_EDGE('',*,*,#331,.T.);
#279=ORIENTED_EDGE('',*,*,#335,.T.);
#280=CARTESIAN_POINT('',(0.584039923126056,0.0,0.0));
#281=DIRECTION('',(1.0,-0.0,0.0));
#282=DIRECTION('',(0.0,0.0,-1.0));
#283=ORIENTED_EDGE('',*,*,#347,.T.);
#284=ORIENTED_EDGE('',*,*,#334,.T.);
#285=ORIENTED_EDGE('',*,*,#338,.T.);
#286=CARTESIAN_POINT('',(0.584039923126056,0.0,0.0));
#287=DIRECTION('',(1.0,-0.0,0.0));
#288=DIRECTION('',(0.0,0.0,-1.0));
#289=ORIENTED_EDGE('',*,*,#341,.T.);
#290=ORIENTED_EDGE('',*,*,#348,.T.);
#291=ORIENTED_EDGE('',*,*,#337,.T.);
#292=CARTESIAN_POINT('',(0.584039923126056,0.0,0.0));
#293=DIRECTION('',(1.0,-0.0,0.0));
#294=DIRECTION('',(0.0,0.0,-1.0));
#295=ORIENTED_EDGE('',*,*,#343,.T.);
#296=ORIENTED_EDGE('',*,*,#349,.T.);
#297=ORIENTED_EDGE('',*,*,#340,.T.);
#298=CARTESIAN_POINT('',(0.584039923126056,0.0,0.0));
#299=DIRECTION('',(1.0,-0.0,0.0));
#300=DIRECTION('',(0.0,0.0,-1.0));
#301=ORIENTED_EDGE('',*,*,#345,.F.);
#302=ORIENTED_EDGE('',*,*,#346,.F.);
#303=ORIENTED_EDGE('',*,*,#347,.F.);
#304=ORIENTED_EDGE('',*,*,#348,.F.);
#305=ORIENTED_EDGE('',*,*,#349,.F.);
#306=ORIENTED_EDGE('',*,*,#344,.F.);
#307=CARTESIAN_POINT('',(0.0,7.50555349946514,-1.20040661110533E-15));
#308=DIRECTION('',(1.0,0.0,0.0));
#309=DIRECTION('',(0.0,1.0,0.0));
#310=EDGE_CURVE('',#350,#351,#352,.T.);
#311=EDGE_CURVE('',#351,#353,#354,.T.);
#312=EDGE_CURVE('',#353,#355,#356,.T.);
#313=EDGE_CURVE('',#350,#355,#357,.T.);
#314=EDGE_CURVE('',#358,#359,#360,.T.);
#315=EDGE_CURVE('',#359,#355,#361,.T.);
#316=EDGE_CURVE('',#358,#353,#362,.T.);
#317=EDGE_CURVE('',#351,#350,#363,.T.);
#318=EDGE_CURVE('',#355,#353,#364,.T.);
#319=EDGE_CURVE('',#359,#358,#365,.T.);
#320=EDGE_CURVE('',#366,#367,#368,.T.);
#321=EDGE_CURVE('',#367,#369,#370,.T.);
#322=EDGE_CURVE('',#369,#371,#372,.T.);
#323=EDGE_CURVE('',#371,#373,#374,.T.);
#324=EDGE_CURVE('',#373,#375,#376,.T.);
#325=EDGE_CURVE('',#375,#366,#377,.T.);
#326=EDGE_CURVE('',#369,#378,#379,.T.);
#327=EDGE_CURVE('',#380,#367,#381,.T.);
#328=EDGE_CURVE('',#382,#380,#383,.T.);
#329=EDGE_CURVE('',#378,#382,#384,.T.);
#330=EDGE_CURVE('',#385,#366,#386,.T.);
#331=EDGE_CURVE('',#387,#385,#388,.T.);
#332=EDGE_CURVE('',#380,#387,#389,.T.);
#333=EDGE_CURVE('',#390,#375,#391,.T.);
#334=EDGE_CURVE('',#392,#390,#393,.T.);
#335=EDGE_CURVE('',#385,#392,#394,.T.);
#336=EDGE_CURVE('',#395,#373,#396,.T.);
#337=EDGE_CURVE('',#397,#395,#398,.T.);
#338=EDGE_CURVE('',#390,#397,#399,.T.);
#339=EDGE_CURVE('',#400,#371,#401,.T.);
#340=EDGE_CURVE('',#402,#400,#403,.T.);
#341=EDGE_CURVE('',#395,#402,#404,.T.);
#342=EDGE_CURVE('',#405,#378,#406,.T.);
#343=EDGE_CURVE('',#400,#405,#407,.T.);
#344=EDGE_CURVE('',#382,#405,#408,.T.);
#345=EDGE_CURVE('',#387,#382,#409,.T.);
#346=EDGE_CURVE('',#392,#387,#410,.T.);
#347=EDGE_CURVE('',#397,#392,#411,.T.);
#348=EDGE_CURVE('',#402,#397,#412,.T.);
#349=EDGE_CURVE('',#405,#402,#413,.T.);
#350=VERTEX_POINT('',#414);
#351=VERTEX_POINT('',#415);
#352=CIRCLE('',#416,4.0);
#353=VERTEX_POINT('',#417);
#354=LINE('',#418,#419);
#355=VERTEX_POINT('',#420);
#356=CIRCLE('',#421,4.0);
#357=LINE('',#422,#423);
#358=VERTEX_POINT('',#424);
#359=VERTEX_POINT('',#425);
#360=CIRCLE('',#426,3.30949999994345);
#361=LINE('',#427,#428);
#362=LINE('',#429,#430);
#363=CIRCLE('',#431,4.0);
#364=CIRCLE('',#432,4.0);
#365=CIRCLE('',#433,3.30949999994345);
#366=VERTEX_POINT('',#434);
#367=VERTEX_POINT('',#435);
#368=LINE('',#436,#437);
#369=VERTEX_POINT('',#438);
#370=LINE('',#439,#440);
#371=VERTEX_POINT('',#441);
#372=LINE('',#442,#443);
#373=VERTEX_POINT('',#444);
#374=LINE('',#445,#446);
#375=VERTEX_POINT('',#447);
#376=LINE('',#448,#449);
#377=LINE('',#450,#451);
#378=VERTEX_POINT('',#452);
#379=LINE('',#453,#454);
#380=VERTEX_POINT('',#455);
#381=LINE('',#456,#457);
#382=VERTEX_POINT('',#458);
#383=B_SPLINE_CURVE_WITH_KNOTS('',3,(#459,#460,#461,#462),.UNSPECIFIED.,.F.,.F.,(4,4),(1.87648324312884E-15,0.00379741744874979),.UNSPECIFIED.);
#384=B_SPLINE_CURVE_WITH_KNOTS('',3,(#463,#464,#465,#466),.UNSPECIFIED.,.F.,.F.,(4,4),(8.26776862409096E-16,0.00379741744875116),.UNSPECIFIED.);
#385=VERTEX_POINT('',#467);
#386=LINE('',#468,#469);
#387=VERTEX_POINT('',#470);
#388=B_SPLINE_CURVE_WITH_KNOTS('',3,(#471,#472,#473,#474),.UNSPECIFIED.,.F.,.F.,(4,4),(1.87680928246879E-15,0.00379741744874978),.UNSPECIFIED.);
#389=B_SPLINE_CURVE_WITH_KNOTS('',3,(#475,#476,#477,#478),.UNSPECIFIED.,.F.,.F.,(4,4),(4.87378398740587E-16,0.00379741744875116),.UNSPECIFIED.);
#390=VERTEX_POINT('',#479);
#391=LINE('',#480,#481);
#392=VERTEX_POINT('',#482);
#393=B_SPLINE_CURVE_WITH_KNOTS('',3,(#483,#484,#485,#486),.UNSPECIFIED.,.F.,.F.,(4,4),(1.87523136653563E-15,0.00379741744874976),.UNSPECIFIED.);
#394=B_SPLINE_CURVE_WITH_KNOTS('',3,(#487,#488,#489,#490),.UNSPECIFIED.,.F.,.F.,(4,4),(4.87736732268612E-16,0.00379741744875119),.UNSPECIFIED.);
#395=VERTEX_POINT('',#491);
#396=LINE('',#492,#493);
#397=VERTEX_POINT('',#494);
#398=B_SPLINE_CURVE_WITH_KNOTS('',3,(#495,#496,#497,#498),.UNSPECIFIED.,.F.,.F.,(4,4),(1.8765380709713E-15,0.00379741744874977),.UNSPECIFIED.);
#399=B_SPLINE_CURVE_WITH_KNOTS('',3,(#499,#500,#501,#502),.UNSPECIFIED.,.F.,.F.,(4,4),(4.87559339974292E-16,0.00379741744875116),.UNSPECIFIED.);
#400=VERTEX_POINT('',#503);
#401=LINE('',#504,#505);
#402=VERTEX_POINT('',#506);
#403=B_SPLINE_CURVE_WITH_KNOTS('',3,(#507,#508,#509,#510),.UNSPECIFIED.,.F.,.F.,(4,4),(1.87762406502483E-15,0.00379741744874978),.UNSPECIFIED.);
#404=B_SPLINE_CURVE_WITH_KNOTS('',3,(#511,#512,#513,#514),.UNSPECIFIED.,.F.,.F.,(4,4),(4.88351618365665E-16,0.00379741744875116),.UNSPECIFIED.);
#405=VERTEX_POINT('',#515);
#406=B_SPLINE_CURVE_WITH_KNOTS('',3,(#516,#517,#518,#519),.UNSPECIFIED.,.F.,.F.,(4,4),(1.8768177361198E-15,0.00379741744874962),.UNSPECIFIED.);
#407=B_SPLINE_CURVE_WITH_KNOTS('',3,(#520,#521,#522,#523),.UNSPECIFIED.,.F.,.F.,(4,4),(4.86825465351669E-16,0.00379741744875117),.UNSPECIFIED.);
#408=CIRCLE('',#524,6.49999999995998);
#409=CIRCLE('',#525,6.49999999995998);
#410=CIRCLE('',#526,6.49999999995998);
#411=CIRCLE('',#527,6.49999999995998);
#412=CIRCLE('',#528,6.49999999995998);
#413=CIRCLE('',#529,6.49999999995998);
#414=CARTESIAN_POINT('',(5.68,0.0,-4.0));
#415=CARTESIAN_POINT('',(5.68,4.89858719658942E-16,4.0));
#416=AXIS2_PLACEMENT_3D('',#530,#531,#532);
#417=CARTESIAN_POINT('',(164.9895,0.0,3.99999999995237));
#418=CARTESIAN_POINT('',(0.0,4.89858719658942E-16,4.0));
#419=VECTOR('',#533,1000.0);
#420=CARTESIAN_POINT('',(164.9895,4.89858719653109E-16,-3.99999999995237));
#421=AXIS2_PLACEMENT_3D('',#534,#535,#536);
#422=CARTESIAN_POINT('',(0.0,0.0,-4.0));
#423=VECTOR('',#537,1000.0);
#424=CARTESIAN_POINT('',(165.680000000009,0.0,3.30949999994345));
#425=CARTESIAN_POINT('',(165.680000000009,4.47577788912E-16,-3.30949999994345));
#426=AXIS2_PLACEMENT_3D('',#538,#539,#540);
#427=CARTESIAN_POINT('',(164.989500000104,4.89858719640396E-16,-3.99999999984857));
#428=VECTOR('',#541,1000.0);
#429=CARTESIAN_POINT('',(164.989500000104,0.0,3.99999999984857));
#430=VECTOR('',#542,1000.0);
#431=AXIS2_PLACEMENT_3D('',#543,#544,#545);
#432=AXIS2_PLACEMENT_3D('',#546,#547,#548);
#433=AXIS2_PLACEMENT_3D('',#549,#550,#551);
#434=CARTESIAN_POINT('',(5.68,-7.50555349946515,-7.92562116651258E-17));
#435=CARTESIAN_POINT('',(5.68,-3.75277674973258,-6.5));
#436=CARTESIAN_POINT('',(5.68,-7.50555349946515,0.0));
#437=VECTOR('',#552,1000.0);
#438=CARTESIAN_POINT('',(5.68,3.75277674973256,-6.5));
#439=CARTESIAN_POINT('',(5.68,7.50555349946514,-6.5));
#440=VECTOR('',#553,1000.0);
#441=CARTESIAN_POINT('',(5.68,7.50555349946514,-2.91786938350574E-16));
#442=CARTESIAN_POINT('',(5.68,3.75277674973256,-6.5));
#443=VECTOR('',#554,1000.0);
#444=CARTESIAN_POINT('',(5.68,3.75277674973256,6.5));
#445=CARTESIAN_POINT('',(5.68,7.50555349946514,0.0));
#446=VECTOR('',#555,1000.0);
#447=CARTESIAN_POINT('',(5.68,-3.75277674973256,6.5));
#448=CARTESIAN_POINT('',(5.68,7.50555349946514,6.5));
#449=VECTOR('',#556,1000.0);
#450=CARTESIAN_POINT('',(5.68,-3.75277674973256,6.5));
#451=VECTOR('',#557,1000.0);
#452=CARTESIAN_POINT('',(0.580556583603128,3.75277674973272,-6.49999999999971));
#453=CARTESIAN_POINT('',(5.68,3.75277674973256,-6.5));
#454=VECTOR('',#558,1000.0);
#455=CARTESIAN_POINT('',(0.580556583603038,-3.75277674973241,-6.49999999999971));
#456=CARTESIAN_POINT('',(5.68,-3.75277674973258,-6.5));
#457=VECTOR('',#559,1000.0);
#458=CARTESIAN_POINT('',(1.15519698478634E-11,1.78353294648665E-17,-6.49999999997999));
#459=CARTESIAN_POINT('',(1.15519698478634E-11,1.78353294648665E-17,-6.49999999997999));
#460=CARTESIAN_POINT('',(2.38262332034519E-11,-1.28086305525551,-6.49999999999875));
#461=CARTESIAN_POINT('',(0.226609890504899,-2.52666943845423,-6.5));
#462=CARTESIAN_POINT('',(0.580556583603038,-3.75277674973241,-6.49999999999971));
#463=CARTESIAN_POINT('',(0.580556583603128,3.75277674973272,-6.49999999999971));
#464=CARTESIAN_POINT('',(0.226609890504678,2.52666943845346,-6.5));
#465=CARTESIAN_POINT('',(2.31274502840649E-11,1.28086305525657,-6.5));
#466=CARTESIAN_POINT('',(1.15519698478634E-11,1.78353294648665E-17,-6.49999999997999));
#467=CARTESIAN_POINT('',(0.580556583603043,-7.50555349946482,-1.00039888904989E-15));
#468=CARTESIAN_POINT('',(5.68,-7.50555349946515,-8.67361737988403E-16));
#469=VECTOR('',#560,1000.0);
#470=CARTESIAN_POINT('',(1.15549701006761E-11,-5.62916512458153,-3.24999999999));
#471=CARTESIAN_POINT('',(1.15549701006761E-11,-5.62916512458153,-3.24999999999));
#472=CARTESIAN_POINT('',(2.38340009124387E-11,-6.26959665222553,-2.14074005537916));
#473=CARTESIAN_POINT('',(0.226609890504905,-6.89249984382597,-1.06184007933288));
#474=CARTESIAN_POINT('',(0.580556583603043,-7.50555349946482,-1.00039888904989E-15));
#475=CARTESIAN_POINT('',(0.580556583603038,-3.75277674973241,-6.49999999999971));
#476=CARTESIAN_POINT('',(0.226609890504652,-4.36583040537218,-5.43815992066637));
#477=CARTESIAN_POINT('',(2.31338379252801E-11,-4.98873359697052,-4.35925994462124));
#478=CARTESIAN_POINT('',(1.15549701006761E-11,-5.62916512458153,-3.24999999999));
#479=CARTESIAN_POINT('',(0.580556583603033,-3.75277674973239,6.49999999999972));
#480=CARTESIAN_POINT('',(5.68,-3.75277674973256,6.5));
#481=VECTOR('',#561,1000.0);
#482=CARTESIAN_POINT('',(1.15525558047871E-11,-5.62916512458151,3.24999999999001));
#483=CARTESIAN_POINT('',(1.15525558047871E-11,-5.62916512458151,3.24999999999001));
#484=CARTESIAN_POINT('',(2.38271881831901E-11,-4.98873359697001,4.3592599446196));
#485=CARTESIAN_POINT('',(0.226609890504897,-4.36583040537173,5.43815992066712));
#486=CARTESIAN_POINT('',(0.580556583603033,-3.75277674973239,6.49999999999972));
#487=CARTESIAN_POINT('',(0.580556583603043,-7.50555349946482,-1.00039888904989E-15));
#488=CARTESIAN_POINT('',(0.22660989050465,-6.89249984382553,1.06184007933364));
#489=CARTESIAN_POINT('',(2.3128050602902E-11,-6.26959665222719,2.14074005537877));
#490=CARTESIAN_POINT('',(1.15525558047871E-11,-5.62916512458151,3.24999999999001));
#491=CARTESIAN_POINT('',(0.580556583603034,3.7527767497324,6.49999999999971));
#492=CARTESIAN_POINT('',(5.68,3.75277674973256,6.5));
#493=VECTOR('',#562,1000.0);
#494=CARTESIAN_POINT('',(1.15519511912558E-11,8.13855749252006E-16,6.49999999997999));
#495=CARTESIAN_POINT('',(1.15519511912558E-11,8.13855749252006E-16,6.49999999997999));
#496=CARTESIAN_POINT('',(2.38262703579506E-11,1.2808630552555,6.49999999999875));
#497=CARTESIAN_POINT('',(0.226609890504897,2.52666943845422,6.5));
#498=CARTESIAN_POINT('',(0.580556583603034,3.7527767497324,6.49999999999971));
#499=CARTESIAN_POINT('',(0.580556583603033,-3.75277674973239,6.49999999999972));
#500=CARTESIAN_POINT('',(0.226609890504646,-2.52666943845335,6.5));
#501=CARTESIAN_POINT('',(2.31275181139588E-11,-1.28086305525668,6.5));
#502=CARTESIAN_POINT('',(1.15519511912558E-11,8.13855749252006E-16,6.49999999997999));
#503=CARTESIAN_POINT('',(0.580556583603038,7.50555349946481,-1.78936496210469E-16));
#504=CARTESIAN_POINT('',(5.68,7.50555349946514,-2.25466837821511E-16));
#505=VECTOR('',#563,1000.0);
#506=CARTESIAN_POINT('',(1.15525642002941E-11,5.62916512458152,3.24999999999));
#507=CARTESIAN_POINT('',(1.15525642002941E-11,5.62916512458152,3.24999999999));
#508=CARTESIAN_POINT('',(2.38262559371811E-11,6.26959665222552,2.14074005537916));
#509=CARTESIAN_POINT('',(0.226609890504899,6.89249984382596,1.06184007933288));
#510=CARTESIAN_POINT('',(0.580556583603038,7.50555349946481,-1.78936496210469E-16));
#511=CARTESIAN_POINT('',(0.580556583603034,3.7527767497324,6.49999999999971));
#512=CARTESIAN_POINT('',(0.226609890504647,4.36583040537217,5.43815992066637));
#513=CARTESIAN_POINT('',(2.31279791713167E-11,4.98873359697051,4.35925994462124));
#514=CARTESIAN_POINT('',(1.15525642002941E-11,5.62916512458152,3.24999999999));
#515=CARTESIAN_POINT('',(1.15518155946958E-11,5.62916512458152,-3.24999999999));
#516=CARTESIAN_POINT('',(1.15518155946958E-11,5.62916512458152,-3.24999999999));
#517=CARTESIAN_POINT('',(2.38256294852473E-11,4.98873359697004,-4.35925994461955));
#518=CARTESIAN_POINT('',(0.22660989050491,4.36583040537171,-5.43815992066716));
#519=CARTESIAN_POINT('',(0.580556583603128,3.75277674973272,-6.49999999999971));
#520=CARTESIAN_POINT('',(0.580556583603038,7.50555349946481,-1.78936496210469E-16));
#521=CARTESIAN_POINT('',(0.226609890504648,6.89249984382553,-1.06184007933363));
#522=CARTESIAN_POINT('',(2.31273175381275E-11,6.26959665222719,-2.14074005537876));
#523=CARTESIAN_POINT('',(1.15518155946958E-11,5.62916512458152,-3.24999999999));
#524=AXIS2_PLACEMENT_3D('',#564,#565,#566);
#525=AXIS2_PLACEMENT_3D('',#567,#568,#569);
#526=AXIS2_PLACEMENT_3D('',#570,#571,#572);
#527=AXIS2_PLACEMENT_3D('',#573,#574,#575);
#528=AXIS2_PLACEMENT_3D('',#576,#577,#578);
#529=AXIS2_PLACEMENT_3D('',#579,#580,#581);
#530=CARTESIAN_POINT('',(5.68,0.0,0.0));
#531=DIRECTION('',(1.0,0.0,0.0));
#532=DIRECTION('',(0.0,0.0,-1.0));
#533=DIRECTION('',(1.0,0.0,0.0));
#534=CARTESIAN_POINT('',(164.9895,0.0,0.0));
#535=DIRECTION('',(-1.0,-0.0,-0.0));
#536=DIRECTION('',(0.0,0.0,-1.0));
#537=DIRECTION('',(1.0,0.0,0.0));
#538=CARTESIAN_POINT('',(165.680000000009,0.0,0.0));
#539=DIRECTION('',(-1.0,0.0,0.0));
#540=DIRECTION('',(0.0,0.0,1.0));
#541=DIRECTION('',(-0.707106781186548,8.65956056235493E-17,-0.707106781186547));
#542=DIRECTION('',(-0.707106781186548,0.0,0.707106781186547));
#543=CARTESIAN_POINT('',(5.68,0.0,0.0));
#544=DIRECTION('',(1.0,0.0,0.0));
#545=DIRECTION('',(0.0,0.0,-1.0));
#546=CARTESIAN_POINT('',(164.9895,0.0,0.0));
#547=DIRECTION('',(-1.0,-0.0,-0.0));
#548=DIRECTION('',(0.0,0.0,-1.0));
#549=CARTESIAN_POINT('',(165.680000000009,0.0,0.0));
#550=DIRECTION('',(-1.0,0.0,0.0));
#551=DIRECTION('',(0.0,0.0,1.0));
#552=DIRECTION('',(0.0,0.5,-0.866025403784438));
#553=DIRECTION('',(-0.0,1.0,0.0));
#554=DIRECTION('',(0.0,0.500000000000001,0.866025403784438));
#555=DIRECTION('',(0.0,-0.500000000000001,0.866025403784438));
#556=DIRECTION('',(0.0,-1.0,-0.0));
#557=DIRECTION('',(0.0,-0.500000000000002,-0.866025403784438));
#558=DIRECTION('',(-1.0,-0.0,-0.0));
#559=DIRECTION('',(1.0,0.0,0.0));
#560=DIRECTION('',(1.0,0.0,-0.0));
#561=DIRECTION('',(1.0,-0.0,0.0));
#562=DIRECTION('',(1.0,0.0,0.0));
#563=DIRECTION('',(1.0,0.0,0.0));
#564=CARTESIAN_POINT('',(0.0,0.0,0.0));
#565=DIRECTION('',(1.0,0.0,0.0));
#566=DIRECTION('',(0.0,0.0,-1.0));
#567=CARTESIAN_POINT('',(0.0,0.0,0.0));
#568=DIRECTION('',(1.0,0.0,0.0));
#569=DIRECTION('',(0.0,0.0,-1.0));
#570=CARTESIAN_POINT('',(5.42101086242752E-16,0.0,0.0));
#571=DIRECTION('',(1.0,0.0,0.0));
#572=DIRECTION('',(0.0,0.0,-1.0));
#573=CARTESIAN_POINT('',(0.0,0.0,0.0));
#574=DIRECTION('',(1.0,0.0,0.0));
#575=DIRECTION('',(0.0,0.0,-1.0));
#576=CARTESIAN_POINT('',(5.42101086242752E-16,0.0,0.0));
#577=DIRECTION('',(1.0,0.0,0.0));
#578=DIRECTION('',(0.0,0.0,-1.0));
#579=CARTESIAN_POINT('',(0.0,0.0,0.0));
#580=DIRECTION('',(1.0,0.0,0.0));
#581=DIRECTION('',(0.0,0.0,-1.0));
ENDSEC;
END-ISO-10303-21;
